busca

I Just Want To Sleep

Nirvana

Tom: G
Afinação: E B G D A D

[Riff 1]

E|---------------------------------------|
B|---------------------------------------|
G|---------------------------------------|
D|--------3-------2-------0-------0------|
A|--0-1-1---1-0-0---0---0---0---0---0----|
E|--------------------0-------0----------|

[Riff 2]

E|---------------------------------------|
B|---------------------------------------|
G|---------------------------------------|
D|--------3-------2-------3-------3------|
A|--0-1-1---1-0-0---0---3---3---3---3----|
E|--------------------3-------3----------|

So many hours gone
You know, you won
I could say that I'm afraid
But tonight I will try to forget

C5        A5
I cannot sleep
A#5          F5
I can't even try
C5             A5
I know that I will
A#5              F5
lose this daily fight
C5                 A5
What is wrong with me?
A#5                F5
What is wrong with me?
C5     A5       A#5    F5
I just want to sleep!

[Riff 1]

E|---------------------------------------|
B|---------------------------------------|
G|---------------------------------------|
D|--------3-------2-------0-------0------|
A|--0-1-1---1-0-0---0---0---0---0---0----|
E|--------------------0-------0----------|

[Riff 2]

E|---------------------------------------|
B|---------------------------------------|
G|---------------------------------------|
D|--------3-------2-------3-------3------|
A|--0-1-1---1-0-0---0---3---3---3---3----|
E|--------------------3-------3----------|

Don't you hate me if I need you
'Cause I don't know what to do
I'm confused about use it
Well, I lost for you two

C5        A5
I cannot sleep
A#5          F5
I can't even try
C5             A5
I know that I will
A#5              F5
lose this daily fight
C5                 A5
What is wrong with me?
A#5                F5
What is wrong with me?
C5     A5       A#5    F5
I just want to sleep!

[Solo]

[Riff 1]

E|---------------------------------------|
B|---------------------------------------|
G|---------------------------------------|
D|--------3-------2-------0-------0------|
A|--0-1-1---1-0-0---0---0---0---0---0----|
E|--------------------0-------0----------|

[Riff 2]

E|---------------------------------------|
B|---------------------------------------|
G|---------------------------------------|
D|--------3-------2-------3-------3------|
A|--0-1-1---1-0-0---0---3---3---3---3----|
E|--------------------3-------3----------|


So many hours gone
You know, you won
I could say that I'm afraid
But tonight I will try to forget

C5        A5
I cannot sleep
A#5          F5
I can't even try
C5             A5
I know that I will
A#5              F5
lose this daily fight
C5                 A5
What is wrong with me?
A#5                F5
What is wrong with me?
C5     A5       A#5    F5
I just want to sleep!

C5        A5
I cannot sleep
A#5          F5
I can't even try
C5             A5
I know that I will
A#5              F5
lose this daily fight
C5                 A5
What is wrong with me?
A#5                F5
What is wrong with me?
C5     A5       A#5    F5
I just want to sleep!

Clipes