busca

School

Nirvana

Tom: A
E|---------------------------------------------------
B|---------------------------------------------------
G|---------------------------------------------------
D|---------------------------------------------------
A|---------------------------------------------------
E|-0-------------------------------------------------

Intro e Riff Principal:
E|---------------------------------------------------
B|---------------------------------------------------
G|---------------------------------------------------
D|---------------------------------------------------
A|---------------------------------------------------
E|-0---0-0-5b7--0-0-5b7--0-0-0-0-0-0-5b7~~-----------


(Intro 8x)

(Verso - Riff Principal 4x)
Won't you believe, it's just my luck
Won't you believe, it's just my luck
Won't you believe, it's just my luck
Won't you believe, it's just my luck

Refrão:
C5  A5        E5
       No Recess
D5      C5
  No Recess
A5
 No Recess

(Intro 2x)

(Verso - Riff Principal 4x)
Won't you believe, it's just my luck
Won't you believe, it's just my luck
Won't you believe, it's just my luck
Won't you believe, it's just my luck

Refrão:
C5  A5        E5
       No Recess
D5      C5
  No Recess
A5
  No Recess
Ponte:
E|----------------------------12-12-12---------------
B|----------------------------12-12-12---------------
G|--------11-11-11-12--12-12-------------------------
D|--------10-10-10-11--11-11-------------------------
A|---------9--9--9-10--10-10-------------------------
E|-0--0-0--------------------------------------------

E|----------------------------14-14-14\--------------
B|----------------------------14-14-14\--------------
G|--------11-11-11-12--12-12-------------------------
D|--------10-10-10-11--11-11-------------------------
A|---------9--9--9-10--10-10-------------------------
E|-0--0-0--------------------------------------------

E|-------------------------------14\-----------------
B|-------------------------------14\-----------------
G|--------11-11-11-12--12-12-------------------------
D|--------10-10-10-11--11-11-------------------------
A|---------9--9--9-10--10-10-------------------------
E|-0—0-0---------------------------------------------

E|---------------------------------------------------
B|---------------------------------------------------
G|--------11-11-11-12--12-12-------------------------
D|--------10-10-10-11--11-11-------------------------
A|---------9--9--9-10--10-10---14\-------------------
E|-0--0-0--------------------------------------------

Solo:
E|---------------------------------------------------
B|-0----0---------0----------------------------------
G|-2b4--b4r2p0h2--2b4r2p0-2p0------------------------
D|----------------------------2p0--------------------
A|--------------------------------2------------------
E|----------------------------------3b5-0------------

E|---------------------------------------------------
B|---------------3--3-3-3-3h5-5----------------------
G|-0--0--2p0-2/4-------------------------------------
D|---------------------------------------------------
A|---------------------------------------------------
E|---------------------------------------------------

E|---------------------------------------------------
B|-5p3-0-5p3-0---------------------------------------
G|--------------2-2-2-2-2-2-2~~----------------------
D|---------------------------------------------------
A|---------------------------------------------------
E|---------------------------------------------------

E|---------------------------------------------------
B|---------------------------------------------------
G|-0-2-----2b4--2-0-------0-2-0-2~-------------------
D|-----2-0----------2-0-2----------------------------
A|---------------------------------------------------
E|---------------------------------------------------

E|---------------------------------------------------
B|---------------------------------------------------
G|-/7--7-7-9-7-9-12b14--12-14-12-14b16-14~~----------
D|---------------------------------------------------
A|---------------------------------------------------
E|---------------------------------------------------

E|---------------------------------------------------
B|-15-15b17-b17r15p14p13-----------------------------
G|-----------------------14-12-14b16r14--12----------
D|------------------------------------------14-12-14-
A|---------------------------------------------------
E|---------------------------------------------------

E|---------------------------------------------------
B|---------------------------------------------------
G|---------------------------------------------------
D|-14-14-14-14~~-14-12-12-12-11-11-11----------------
A|------------------------------------14-14-12-12----
E|------------------------------------------------15-

E|---------------------------------------------------
B|---------------------------------------------------
G|---------------------------------------------------
D|---------------------------------------------------
A|-12b14~~-------------------------------------------
E|------------------------------------12\------------


You're in high school again
You're in high school again
You're in high school again
You're in high school again
You're in high school again
You're in high school again
You're in high school again
You're in high school again

Refrão Final:
C5  A5        E5
       No Recess
D5       C5
   No Recess
A5       E5
   No Recess
D5       C5
   No Recess
A5       E5
   No Recess
D5       C5
   No Recess
A5
   No Recess

Clipes

Cifra Club Pro

Aproveite o Cifra Club com benefícios exclusivos e sem anúncios
7 dias grátis
Cifra Club Pro
Aproveite o Cifra Club com benefícios exclusivos e sem anúncios
7 dias grátis