busca

Scoff

Nirvana

Tom: F#
The verse part ("In my eyes..."):

D--4-4-3-2-4-4-3-|-4-4-3-2-4-4-3-||
A--4-4-3-2-4-4-3-|-4-4-3-2-4-4-3-|| repeat numerous times
E--2-2-1-0-2-2-1-|-2-2-1-0-2-2-1-||

Bridge ("Gimme back my alcohol...")

G--2---------2-------||
D--2-4-4-4---2-4-4-4-||
A--0-4-4-4---0-4-4-4-|| repeat several times
E--0-2-2-2---0-2-2-2-||

Then, come out of the bridge:

G--2-----------------||
D--2-4-4-5-5-6-6-7-7-||
A--0-4-4-5-5-6-6-7-7-||
E--0-2-2-3-3-4-4-5-5-||

Then, the chorus ("Give, me your...")

D-10--10-10-10-9-8-|-12--12-12-12-12-11-10-9-||
A-10--10-10-10-9-8-|-12--12-12-12-12-11-10-9-||  repeat several times
E--8---8--8--8-7-6-|-10--10-10-10-10--9--8-7-||


Then, the verse...and the bridge...and the chorus...
then the magnificient and wonderful solo:

        hold            hold             hold             hold
B--------------|-----------5----|-----------5----|-----------5----|
G--4------5----|-4------5-(5)---|-4------5-(5)---|-4------5-(5)---|
D--4---4-(4)---|-4---4-(4)(4)---|-4---4-(4)(4)---|-4---4-(4)(4)---|
A--4---4-(4)---|-4---4-(4)(4)---|-4---4-(4)(4)---|-4---4-(4)(4)---|
E--2---2-(2)---|-2---2-(2)(2)---|-2---2-(2)(2)---|-2---2-(2)(2)---|

B--6-5-6-5-6-5-6--/|-8-7-8-7-8-7-8--/|--10--\||
G--6-5-6-5-6-5-6--/|-8-7-8-7-8-7-8--/|--10--\||
D--6-5-6-5-6-5-6--/|-8-7-8-7-8-7-8--/|--10--\|| repeat once, slide to verse
A------------------|-----------------|-------||
E------------------|-----------------|-------||

then the verse, bridge, chorus, and fine.


Scoff

In my eyes, I'm not lazy
In my face, it's not over
In your room, I'm not older
In you eyes, I'm not worth it

Gimme back my alcohol

Heal a million
Kill a million

Clipes

Cifra Club Pro

Aproveite o Cifra Club com benefícios exclusivos e sem anúncios
7 dias grátis
Cifra Club Pro
Aproveite o Cifra Club com benefícios exclusivos e sem anúncios
7 dias grátis