busca

Sifting

Nirvana

Tom: C
Intro:
E|-0-0-0-0|

Verse:
D|-------3---------2-1-0-|
A|-------3---------2-1-0-|
E|-0-0-0-----0-0-0-------|

Pre Chorus:
D|-------5\-|
A|-------5\-|
E|-0-0-0----|

Chorus: C5 A5

Solo:
E:--------)~~~-----------------------------------------------|
B:-------8---------------------------------------------------|
G:-------------------)7(---------)~~~--------)7(--------)~~~-|
D:------------------7---7-------7-----------7---7------7-----|
A:-----------------------------------------------------------|
E:-0-0-0------0-0-0-------0-0-0-------0-0-0-------0-0-0------|

G:---------)7(----------)7(----------)7(--|
D:--------7---7--------7---7--------7---7-|
A:----------------------------------------|
E:-0-0-0---------0-0-0--------0-0-0-------|


Sifting

Afraid to grade
Wouldn't it be fun?
Cross says floss
Wouldn´t it be fun?
Wet yuor bed
Wouldn´t it be fun?
Sun felt numb
Wouldn´t it be fun?

Your eyes...
-The teacher said
-The preacher said
Don´t have nothing for you



Spell the smell
Wouldn't it be fun?
Search for church
Wet your bed
Wouldn´t it be fun?
Cold in coals
Wouldn´t it be fun?

Clipes