busca

They Hung Him On A Cross

Nirvana

Tom: E
    E
E|--0----------||
B|--0----------||
G|--1----------||
D|--2----------||
A|--2----------||
E|--0----------||

   Am
E|--0----------||
B|--1----------||
G|--2----------||
D|--2----------||
A|--0----------||
E|--0----------||

    B
E|--2----------||
B|--4----------||
G|--4----------||
D|--4----------||
A|--2----------||
E|-------------||

 E
They hung him on a cross, they hung him on a cross, they hung him on a
          B       E                         Am
cross for me. One day when I was lost, they hung him on a cross, they
E             B
hung him on a cross for me.

They whooped him up the hill, they whooped him up the hill, they whooped
him up the hill for me. One day when I was lost, they hung him on a
cross, they whooped him up the hill for me.

He never said among them word, he never said among them word, he never 
said among them word for me. One day when I was lost, they hung him on
a cross, they hung him on a cross for me.

They hurt him in the side, they bit him in the side, they bit him in
the side for me. One day when I was lost, they hung him on a cross, 
they hung him on a cross for me.

He hung his head and died, he hung his head and died, he hung his head
and died for me. One day when I was lost, they hung him on a cross, they
hung him on a cross for me.

Clipes

Cifra Club Pro

Aproveite o Cifra Club com benefícios exclusivos e sem anúncios
Cifra Club Pro
Aproveite o Cifra Club com benefícios exclusivos e sem anúncios