busca

You've Got No Right / On The Mountain (Medley)

Nirvana

Tom: C
(Kurt Cobain)

On The Mountain 'e uma musica rara do Nirvana que provavelmente nunca tera
uma versao audivel ate que a Geffen libere a versão de estúdio.
Essa tablatura pode apresentar eventuais erros.Correcoes sao bem vindas.


Parte 1
---------------------------
---------------------------
---------------------------
---------------------------
-----1----------1----------
-3------0---3------0---0---

Parte 2
Acordes - C#5 e Eb5
--------------------
--------------------
--------------------
----------6-------8-
----------4-------6-
--------------------

Parte 3 (Refrao)
--------------------
--------------------
--------------------
--------------------
-3---0--------------
-1---0--------------

Inprovise um solo, com os acordes da música!

Letra:

I don't need to love again
I won't sigh and mope again
I don't need to love again
I just don't think it's worth it
I don't really love her
I don't think I want her
Ain't gonna take to love again
It's the way your love hurts
It's the way your mad again
I don't think I'll love again
I won't ever promise her
I don't think I want her

This time no one else
I don't bear to follow you
I don't ever promise you
Sometimes I don't love you
Think I'm tired of loving her
I don't really want love

Pain, Pain, Pain, Pain
You know you're right

You told me to follow him
Teach him that I loved him
I won't ever promise you
I won't even bother to
You gave me my first kiss
I don't think I want it now
I don't ever want again
It's all that I had to have
It's all that I wanted
It's all that I had to
I don't think I'll miss her
I don't think I want her

Clipes