Bring It On Down

Oasis

A
123
X02220
A5
12
X022XX
B
234
X24442
B5
134
X244XX
D
123
XX0232
E
123
022100
E2
123
024100
G
123
320003
Tom: G
Autor: Noel Gallagher

#1t1#Acordes
#1t2#-------#/1t2##/1t1#
B5      (x2444x)
B5/A    (x0444x)
Dsus2   (x57755)
E       (022100)
Esus2   (x79977)
A       (577655)
G       (355433)

#2t1#Riff Principal
#2t2#--------------#/2t2##/2t1#
h= hammer (pressionar sem tocar)

#3t1#   B5/A    B5    B5/A    B5    B5/A    B5   B5/A    B5    D        E2   D   
#3t2#e---------------------------------------------------------------------------
B--4-4-4-4-4-4---4-4-4-4-4-4---4-4-4-4-4-4--4-4-4-4-4-4---7-7-7-7--9-9--7-7-
G--4-4-4-4-4-4---4-4-4-4-4-4---4-4-4-4-4-4--4-4-4-4-4-4---7-7-7-7--9-9--7-7-
D--4-4-4-4-4-4---4-4-4-4-4-4---4-4-4-4-4-4--4-4-4-4-4-4---7-7-7-7--9-9--7-7-
A--0-0-0-0h2-2---0-0-0-0h2-2---0-0-0-0h2-2--0-0-0-0h2-2---5-5-5-5--7-7--5-5-
E---------------------------------------------------------------------------#/3t2##/3t1#

[repetir]

Se não gostar da sonoridade do riff acima, tente esse:

s=slide

#4t1#   A5      B5    A5      B5    A5      B5   A5      B5    D        E2   D
#4t2#e---------------------------------------------------------------------------
B---------------------------------------------------------7-7-7-7--9-9--7-7-
G---------------------------------------------------------7-7-7-7--9-9--7-7-
D--7-7-7-7s9-9---7-7-7-7s9-9---7-7-7-7s9-9--7-7-7-7s9-9---7-7-7-7--9-9--7-7-
A--7-7-7-7s9-9---7-7-7-7s9-9---7-7-7-7s9-9--7-7-7-7s9-9---5-5-5-5--7-7--5-5-
E--5-5-5-5s7-7---5-5-5-5s7-7---5-5-5-5s7-7--5-5-5-5s7-7---------------------#/4t2##/4t1#

[repetir]


#5t1#Intro
#5t2#-----#/5t2##/5t1#
B (muitas vezes)
B5 (c/ riff)  D  E5  D  B5

#6t1#Verso 1
#6t2#-------#/6t2##/6t1#
B5 (c/ riff)
What was that sound ringin' around your brain?
  D                        E2    D           B5
Today was just a blur, you got a head like a ghost train
What was that sound ringin' around your brain?
       D                 E2         D          B5
You're here on your own, who you gonna find to blame?

#7t1#Pre-refrão
#7t2#----------#/7t2##/7t1#
           B5      D  A            B            D  A
You're the outcast      you're the underclass
        B5         D  A                B5           D   A
But you don't care      because you're living fast


#8t1#Refrão
#8t2#------#/8t2##/8t1#
           B5                   D
You're the uninvited guest that stays till the end
  G                                  E
I know you've got a problem that the devil sends
    B5                                      D
You think they're talking 'bout you but you don't know who
        G                           E
I'll be scraping your life from the sole of my shoe tonight

#9t1#Transição
#9t2#---------#/9t2##/9t1#
#10t1#   G           E
#10t2#D--5--5--------2--2----
A--5--5--------2--2----
E--3--3--3-2-1-0--0----#/10t2##/10t1#

#11t1#Verso 2
#11t2#-------#/11t2##/11t1#
Bring it on down. Bring it down for me.
Your head's in a fish tank
your body and your mind can't breathe

#12t1#Pre-Refrão
#12t2#----------#/12t2##/12t1#
You're the outcast - you're the underclass
But you don't care - because you're living fast

#13t1#Refrão
#13t2#------#/13t2##/13t1#
You're the uninvited guest who stays till the end
I know you've got a problem that the devil sends
You think they're talking 'bout you but you don't know who
I'll be scraping your life from the sole of my shoe tonight

[Acaba em B]

Rafael Tosta 
Composição: Colaboração e revisão: