Back Chat

Queen

Tom: G
#1t1#intro
#1t2#|-------12--------8----------10-----------13---------15--|
|----13---------8---------10-----------13---------15-----|
|-14----------9--------11-----------14---------16--------|
|--------------------------------------------------------|
|--------------------------------------------------------|
|--------------------------------------------------------|#/1t2##/1t1#

#2t1#riff principal:(varias vezes pela música)
#2t2#E|-------------------------------|---------------------------------|
B|-------------------------------|---------------------------------|
G|-------------------------------|---------------------------------|
D|-------------------------------|-------------------3-------------|
A|-------------------3-----------|--3--5--3--5--3--5----5--3--5----|
E|--3--5--3--5--3--5----5--3--5--|---------------------------------|#/2t2##/2t1#

#3t1#solo
#3t2#|---------------------------12-------------------------------------------------|
|-13b15---13vvv-----13--15------13b15--13vvv---12h13-13p12----12---------------|
|--------------------(13)----------------------------------14----14b16---14vv--|
|------------------------------------------------------------------------------|
|------------------------------------------------------------------------------|
|------------------------------------------------------------------------------|#/3t2##/3t1#

#4t1##4t2#|-------------12---------------------------12---------12---------12---|
|-12--13--15------15b17vv----15---13-15b17------15b17------x-b17------|
|---------------------------------------------------------x-----------|
|---------------------------------------------------------------------|
|---------------------------------------------------------------------|
|---------------------------------------------------------------------|#/4t2##/4t1#

#5t1##5t2#|---------------------------------------------------------------------------------------------|
|-17r15p13---12-13----------------------------------------------------------------------------|
|------------------14v---12---------------------------------12--12----------------------------|
|----------------------------13r12p10--12p10------12/14-12----------10--13r12--10--12---------|
|--------------------------------------------12----------------------------------------10--12-|
|---------------------------------------------------------------------------------------------|#/5t2##/5t1#

#6t1##6t2#|-----------19b21-----------------------------------------------------------|
|-20b22---------------20b22---b22---22r20---p17-20p17-----------------------|
|-----------------------------------------------------20--19--17b-------x-x-|
|-----------------------------------------------------------------19\\/-x-x-|
|---------------------------------------------------------------------------|
|---------------------------------------------------------------------------|#/6t2##/6t1#

#7t1##7t2#|-----------------------------------------20b22----20p17---------------------------------------|
|-20------20----(0)---20b22---20-19---x------------------20p17---------------------------------|
|-19b21---19b21-----------------------x------------------------20p19p17------------------------|
|-------------------------------------x---------------------------------19-17------------------|
|-------------------------------------x---------------------------------------19-18-17-15------|
|-------------------------------------x---------------------------------------------------17---|#/7t2##/7t1#
Composição: John DeaconColaboração e revisão: Taino Vieira