Doing All Right

Queen

E
123
022100
Tom: G
#1t1#
piano (right) arr for guitar
#1t2#|-----0--------0--------0--------12---|----|
|-9-------10-------12-------10--------|----|
|-------------------------------------|-0/-|
|-9-------11-------13-------11--------|-/0-|
|-------------------------------------|----|
|---0---0----0---0----0---0----0----0-|-3X-|#/1t2##/1t1#

#2t1##2t2#|-----0--------0-------0-------0----------------------------------|
|-9-------10-------9-------9--------9---9---9---7---7---7---5-----|
|------------------7-------6--------9---9---9---8---8---8---6-----|
|-9-------11-------9-------8--------9---9-------9---9---9---7-----|
|-----------------------------------------------------------------|
|---0---0----0---0---0---0---0---0------7-------------7--------5--|#/2t2##/2t1#

#3t1#clean eletric guitar (left)
#3t2#|------------|----------------|----------------------------------------*
|-12b14__r12-|----------------|----------------------------------------*
|------------|-12-11-9----9---|----------9----13r11p9------11b13--b13--*
|------------|---------11-----|------9----------------11---------------*
|------------|----------------|-9/11-----------------------------------*
|------------|----------------|----------------------------------------*#/3t2##/3t1#

*-------------------------|---------------------------------------------|
*-12----------------------|-12b14---12----------------------------------|
*----13r11---11p9------9--|-------------11b13-----13r11-9---8h9p8-------|
*-----------------11p9----|---------------------------------------9/11--|
*-------------------------|---------------------------------------------|
*-------------------------|---------------------------------------------|

#4t1##4t2#|---------------------------------------------------------------|
|---------------------------------------------------------------|
|----------13r11----------13r11b13r11-b13---13r11p9-------------|
|-(9b11r9)------------------------------------------11---9-7-6--|
|---------------------------------------------------------------|
|---------------------------------------------------------------|#/4t2##/4t1#

#5t1##5t2#|----------------------------------------------|
|-------------------12----10--9-10-8h9p8-------|
|-/9--------13r11p9----------------------11-9--|
|-------11-------------------------------------|
|----------------------------------------------|
|----------------------------------------------|#/5t2##/5t1#

#6t1#acoustic guitar
#6t2#|-------------------------------------------0-0-0-------22-------5-----|
|---3--3-3-3--------33-3-3-3-----3----3------------2-------3-3-3----2--|
|--2-2-2-0-0-2--2--2-2-2-0-0----2----2--2-2-0-0--2-----2-2-2-0-0---2---|
|-0------------2--0------------2----0-------------2---0-----------2----|
|----4-4-2-2--0------4-4-2-2-20---------4-4-2-2-0--------4-4-2-2-0-----|
|----------------------------------------------------------------------|#/6t2##/6t1#

#7t1##7t2#|------------------------------------4-4------0------4-4--------0----|
|---33-3-3-3-3--3------3-----2-------4-4-2-----0-----4-4-2-2--0------|
|--2-2-2-0-0-----------2-0-0----2----4-4-2------2----4-4-2-2------01-|
|-0------------2--0----------------2--------2----2-2-----------2-2---|
|----4-4-2-2-0-------4-4-2-2--0---2------0---------2-----0-0---------|
|---------------------------------0----------------0-----------------|#/7t2##/7t1#

#8t1##8t2#|---4-4--------0------------0--0--------------------|
|---4-4-----0-------3------2----3---3---2--2--------|
|-------2-2--2--------0-0----0--------0-----2-------|
|-----2-------2--------0------2--------0--2--2---2--|
|-2-----0-0------101-----0-------101-----0----------|
|-0-------------------------------------------------|#/8t2##/8t1#

#9t1##9t2#|---------------------------------------------5---------------0---|
|---------------------3-3-3-3---------3-3---------------3-3-3----3|
|----2-2-0-0-2--2-----2-2-0-0----2----2-2-0-0----2----2-2-0-0-----|
|-0--0---------2---0--0-0-0-0-0-2--0--0-0-0-0---2--0--0-0-0-0---2-|
|----4-4-2-2--0-------4-4-2-2--0------4-4-2-2--0------4-4-2-2-0---|
|-----------------------------------------------------------------|#/9t2##/9t1#

#10t1##10t2#|-------------------|
|------------3--3-..|
|----2-2-0-0-2----..|
|-0--0-0-0-0---2--..|
|----4-4-2-2-0----..|
|-----------------..|#/10t2##/10t1#

right and left guitar
E(VII) B(VII) D(V) A(V)
E(VII) B(VII) D(V) A(V)
E(VII) B(VII) D(V) A(V)
E(VII) B(VII) D(V) A(V) E(VII)

E(VII) A(V) E(VII) B(VII) E(VII) A(V) E(VII) B(VII) E(VII)
E(VII) A(V) E(VII) B(VII) E(VII) A(V) E(VII) B(VII) E(VII)
E

#11t1#midle guitar
#11t2#|--------------------------------------------|
|--------------------------------------------|
|--------------------------------------------|
|--------------------------5-----------------|
|-7--------5-6-7------------7-------5-6-7----|
|-----7----------5----3p0-------7---------5--|#/11t2##/11t1#

#12t1##12t2#|--------------------------------------------------------------------------|
|--------------------------------------------------------------------------|
|-------------------------------12b------1414-12-----14b16-b16-b16---b16---|
|-h14-12----12---14p12-14p12----------14---------14------------------------|
|--------14------------------14--------------------------------------------|
|--------------------------------------------------------------------------|#/12t2##/12t1#

#13t1##13t2#|-----------------------------------------------------------------------------|
|----------------------15b17---15b17-------------b17---b17---b17---b17---b17--|
|-b16-b16-b16-b16-r14----------------------------------------b16---b16---b16--|
|-------------------------------------2p0h2..2p0------------------------------|
|-----------------------------------------------------------------------------|
|-----------------------------------------------------------------------------|#/13t2##/13t1#

#14t1##14t2#|----------12-12----------12-------------12-------------12------|
|-------12-------------12---1512------12---1512------12----1512-|
|-14b16----------14b16----------14b16----------14b16------------|
|---------------------------------------------------------------|
|---------------------------------------------------------------|
|---------------------------------------------------------------|#/14t2##/14t1#

#15t1##15t2#|----------12----12-----------------|
|-------12----12----12-12-12-15b17--|
|-14b16-----------------------------|
|-----------------------------------|
|-----------------------------------|
|-----------------------------------|#/15t2##/15t1#

#16t1#clean eletric guitar (left)
#16t2#|----------------------------12---16r14b16r14-12--|-19_____---------------|
|-9h10p9..10p9---10--10/12------------------------|---21r19-17------17vv--|
|-------------------------------------------------|-------------18--------|
|-------------------------------------------------|-----------------------|
|-------------------------------------------------|-----------------------|
|-------------------------------------------------|-----------------------|#/16t2##/16t1#

#17t1##17t2#|------------------------------------------------------------|
|------------------------------------------------------------|
|-18-18p16---16-18p16-18p16-18---16----13h16p13h16p13h16p13--|
|------------------------------------------------------------|
|------------------------------------------------------------|
|------------------------------------------------------------|#/17t2##/17t1#

#18t1##18t2#|---------------------------------|------------------------------------------|
|---------------------------------|------------------------------------------|
|---------------------------------|------------------------------------------|
|-18r16--14--18r16--(14)--16b18v--|-/14--/14--/14-----14---------------------|
|---------------------------------|----------------16------------------------|
|---------------------------------|------------------------------------------|#/18t2##/18t1#

right and left guitar
E(VII) B(VII) D(V) A(V)
E(VII) B(VII) D(V) A(V)

E(VII) B(VII) D(V) A(V)
E(VII) B(VII) D(V) A(V)
E(VII) B(VII) D(V) A(V)
E(VII) B(VII) D(V) A(V) E(VII) (D(V))

E(VII) A(V) E(VII) B(VII) E(VII) A(V) E(VII) B(VII) E(VII)
E(VII) A(V) E(VII) B(VII) E(VII) A(V) E(VII) B(VII) E(VII)
E

#19t1#midle guitar
#19t2#|-----------------------------------------------------------------------------|
|-----------------------------------------------------------------------------|
|--------------------------------------------------16r14-12-------------------|
|-------------------14p12----12---12-14p12----14-----------------12-13-14-----|
|-7-------5-6-7-7---------14---------------14---------------14------------12--|
|-----7-----------------------------------------------------------------------|#/19t2##/19t1#

#20t1##20t2#|--------------------------------------------------------------------12--------|
|-----------------------------------------------------------------12----15b17--|
|---------------------------------------------------9-11b13v_\/13--------------|
|----------------------------------------------9-11----------------------------|
|-10--------------------------------------5/10---------------------------------|
|----12-12-12---12-12-12-12-12-12-12-12----------------------------------------|#/20t2##/20t1#

#21t1##21t2#|-------12-12-12-12-12-12----15b17---b17---b17---b17---17r15p13---|
|-----------------------------------------------------------------|
|-14b16------------------(0)--------------------------------------|
|-----------------------------------------------------------------|
|-----------------------------------------------------------------|
|-----------------------------------------------------------------|#/21t2##/21t1#

#22t1##22t2#|-b21---19v---17---16----16---------------21r19---------------------|
|--------------------------19-17-21r19p17------(17)-17---17---17-17-|
|-------------------------------------------------------------------|
|-------------------------------------------------------------------|
|-------------------------------------------------------------------|
|-------------------------------------------------------------------|#/22t2##/22t1#

#23t1##23t2#|------------------------------------------------------------|
|-21r19p17-17------17-\--------------------------------------|
|---------------18----------14b16---14--13--11---------------|
|-------------------------------------------------13--13p11--|
|------------------------------------------------------------|
|------------------------------------------------------------|#/23t2##/23t1#

#24t1#the vocal
#24t2#|-------------------------------|
|-12-10-9--9--9--9--10-12-12-12-|
|-13-11-9--9--9--11-11-11-11-13-|
|-14-11-9--9--11-11-11-13-14-14-|
|-------------------------------|
|-------------------------------|#/24t2##/24t1#
Composição: Brian May / Tim StaffellColaboração e revisão: