busca

Is This The World We Created

Queen

Tom: D
Introdução:

Parte 1:
    D
E|--5-----5-----5-----5----|--|
B|--7-----7-----7-----7----|--|
G|--7--7--7--7--7--7--7--7-|--|
D|--0-----0-----0-----0----|--|
A|-------------------------|--|
E|-------------------------|--|

Parte 2:       
E|--5-----5-----5-----5-----5-----5-----3-----3--------------------0---------
B|--7-----7-----7-----7-----7-----7-----3--3--3--3--6-----6-----6------------
G|--7--7--7--7--6--7--6--7--5--7--5--7--4-----4-----7-----7-----0-----7------
D|--0-----0-----0-----0-----0-----0-----0-----0-----8--8-----7--8--------8---
A|--------------------------------------------------------------8------------
E|--------------------------------------------------6------------------------
 
E|---------------------7--10---|
B|--------------7--10----------|
G|--------7--9-----------------|
D|--7--0-----------------------|
A|--5--------------------------|
E|-----------------------------|

Verso 1:
2x     Just look at all those ...            So many lonely faces...                
E|-----10-10-10-10-10-10-10--9-----9--7---|-----5--5--5--5-----5-------------
B|-----7--7--7--7--7--7--7---7--7-----5---|-----5--5--5--3--3-----3----------
G|-----7--7--7--7--7--7--7---7--------7---|-----0--0--0------------------0---
D|--9------------------------7--------5---|--------------4------------2------
A|----------------------------------------|--0-------------------------------
E|----------------------------------------|----------------------------------

E|--5--7--3-|-2--3--2--0-------------------------------3---------------------
B|----------|-------------2--0-----3----------------3------------------------
G|----------|-3--------------4-----4----------0--4---------------------------
D|----------|-4--------------5--------5-(4)-2--------------------------------
A|----------|----------------------------------------------------------------
E|----------|----------------------------------------------------------------

Just look at all those hungry mouths we have to feed
Take a look at all the suffering we breed
So many lonely faces scattered all around
Searching for what they need

Refrão:
             D         A/D
Is this the world we created
    Am/D           G/D
What did we do it for
             Bm 
Is this the world we invaded
  F#m            A 
     Against the law

(faça a mesma coisa da 2ª parte da intro.)
So it seems in the end
Is this what we're all living for today
The world that we created

Verso 2:                
  
E|------------------------9------0---------------|----------------------7--9--------7---|
B|----7--7--7--7--7------10---------5-------5----|>7-----7-----7--7-----------7-----5---|
G|----7--7--7--7--7------11--11-----7----------7-|9--9-----9--------9--------------5---|
A|------------------------0---------7------------|--------------------------------------|
E|-----------------------------------------------|--------------------------------------|

  
E|--------------------------5----------3----|
B|----3--3--3--3----------------------------|
G|-------------2-----2------------4-4-------|
D|----5--5--5--4------------2---------------|
A|-0---------------------------0------------|
E|------------------------------------------|

  
E|-2--3-----0-----------------------------------------------------|
B|----------------2------------------3-----------------0-/----|
G|----------------------4---------------4-----------0----/----|
D|-4-----4-----4-----4--5----------5-------5--4---------------|
A|----------------------5-----------------------------------------|
E|-----------------------------------------------0----------------|
You know that every day a helpless child is born
Who needs some loving care inside a happy home
Somewhere a wealthy man is sitting on his throne
Waiting for life to go by

Refrão:
             D         A/D
Is this the world we created
    Am/D           G/D
We made it on our own
             Bm
Is this the world we devastated
F#m              A 
   Right to the bone
 
(faça a mesma coisa da 2ª parte da intro.)
If there's a God in the sky looking down
What can he think of what we've done
To the world that he created

Clipes

Cifra Club Pro

Aproveite o Cifra Club com benefícios exclusivos e sem anúncios
7 dias grátis
Cifra Club Pro
Aproveite o Cifra Club com benefícios exclusivos e sem anúncios
7 dias grátis