busca

It's Late

Queen

Tom: G
Intro:
------>0-----<0---<0---
-<2---<3----->3--->2---
->2--->2-----<2---<2---
-<2---<4----->4--->4---
->0--->0-----<0---<0---
-----------------------

------------------------------------------------------------------
---------------------3-----3p2-----------------2h3--2-------------
-2----------------2-------------2--------2-----2----2--2----------
------4--2-----4----------------------2-----2-------2-----2-------
------------5----------------------0-------------------------0----
------------------------------------------------------------------
                                         
--------------------------------------------------------
-----------------2---------------------3--3p2-2---------
---------2-------2-------------2-------2--2-----4p2-----
---------2-------2---------0---2-------4------------4p2-
-----0---0----x--0---------0---0----x--0----------------
-0h2---2---------------0h2---2--------------------------

------------------------------------------------
---------2---------------------3--3p2-2-2-------
-2-------2-------------2-------2--2---2-4p2-2---
-2-------2---------0---2-------4-(4p2)------2h4-
-0----x--0---------0(2)0----x--0----------------
---------------0h2---2--------------------------

------------------------------------------------
---------2---------------------3--3p2-2-2-------
-2-------2-------------2-------2--2-----4p2-2---
-2-------2---------0---2-------4------------4p2-
-0----x--0---------0---0----x--0----------------
---------------0h2---2--------------------------

------------------------------------------------
---------2---------------------3--3-2-2---------
-2-------2-------------2-------2--2-2-2-4p2-----
-2-------2---------0---2-------0----2-------2h4-
-0----x--0---------0---0----x-------------------
---------------0h2---2--------------------------

------------------------------------------------
---------2---------------------3--3-------------
-2-------2-------------2-------2--2-------------
-2-------2---------0---2-------0--0-------------
-0----x--0---------0---0----x-------4-2-0-------
---------------0h2---2--------------------2-0-2-

-------------------------------------
-2-------2---------7-------6---------
-2-------2---------6-------6---------
-2-------2---------6-------6---------
-0----x--0----x----4----x--4----x----
-------------------------------------

-2-------------2-----2------2-----------------------------
-2-------------2-----3------3--3-2-2-----------------2----
-2----2--------2-----2------2--2-2---4p2-----2-------2----
-4-------4--------0--------------2-------2h4-2-------2----
-4-------------------------------------------0----x--0----
------------0---------------------------------------------

-----------------0------------------------------
-----------------3-------2----2----2----2----2--
---------2-------2-------2----2----2----2----2--
-----0---2-------2-------2----2----2----2----2--
-----0---0----x----------0----0----0----0----0--
-0h2---2----------------------------------------

Refrão:
E                           A
It's late - and I'm bleeding deep inside 
E                    A 
It's late - is it just my sickly pride 
     D                Fm                       E                    A 
Too late - even now the feeling seems to slip away 
D                              Bm                  E
So late - though I'm crying I can't help but hear you say 
A                            D
It's late It's late It's late 
A
But not too late

Verso 2:
------------------------------------------------
---------2---------------------3--3p2-2---------
-2-------2-------------2-------2--2-----4p2-----
-2-------2---------0---2-------4------------4p2-
-0----x--0---------0---0----x--0----------------
---------------0h2---2--------------------------

-----------------------------------------------
--------2---------------------3--3-2-2---------
-2------2-------------2-------2--2-2-2-4p2-----
-2------2---------0---2-------4------------2p4-
-0----x-0---0-----0---0----x-------------------
--------------0h2---2--------------------------

------------------------------------------------
---------2---------------------3--3p2-2---------
-2-------2-------------2-------2--2---2-4p2-----
-2-------2---------0---2-------4------------4p2-
-0----x--0---------0---0----x--0----------------
---------------0h2---2--------------------------

------------------------------------------------
---------2---------------------3--3-2-2---------
-2-------2-------------2-------2--2-2-2-4p2-----
-2-------2---------0---2-------4----2-------4p2-
-0----x--0---------0---0----x-------------------
---------------0h2---2--------------------------

------------------------------------------------
---------2---------------------3--3-------------
-2-------2-------------2-------2--2-------------
-2-------2---------0---2-------0--0-------------
-0----x--0---------0---0------------4---2-0-----
---------------0h2---2----------------------3b--

------------------------------------------------
---------2---------------------3--3-2-2---------
-2-------2-------------2-------2--2-2-2-4p2-----
-2-------2---------0---2-------4----4-------4p2-
-0-------0---------0---0----x-------------------
---------------0h2---2--------------------------

-------------------------------------
-2-------2---------7-------6---------
-2-------2---------6-------6---------
-2-------2---------6-------6---------
-0----x--0----x----4----x--4----x----
-------------------------------------

-2---------------2------2----------------
-2---------2-----3------3--3p2-2---------
-2---------2-----2------2--2-----4p2-----
-4---------2--4----------------------4p2-
-4---------------------------------------
--------0--------------------------------

-------------------------------0---------------------------------0-----
---------2---------------------3------2-----2--------------------3-----
-2-------2-------------2-------2------2-----2--------------2-----2-----
-2-------2---------0---2-------2------2-----2----------0---2-----2-----
-0----x--0---------0---0----x---------0-----0----------0---0-----------
---------------0h2---2-----------------------------0h2---2-------------

--0----0----0----0----0--
--2----2----2----2----2--
--2----2----2----2----2--
--2----2----2----2----2--
--2----0----0----0----0--
-------------------------

Refrão:

3'9"
-----------------------------------------------
------------------2----------------------2-----
------------------2----------------------2-----
------------------2----------------------2-----
-*-----*-----*----0----------------------0-----
-0--0--0--0--0--00------0--0--0--0--000--------

-----------------------------------------------
-------------------2-----------------------2---
-------------------2-----------------------2---
-------------------2------------------20---2---
-------------------0--------------------4240---
-0--0--0--0--0--0---------0--0--0--0-----------

------------------------------------------------
-------------------2-----------------------2----
-------------------2-----------------------2----
-------------------2-----------------------2----
-------------------0-----------------------0----
-0--0--0--0--0--0--------0--0--0--0--0--0----...


3'29 Base do 1° solo:
------------------------------------------------
------------------------------------------------
-------------------------------------------4----
-------------------22----------------------4----
-------------------------------------------2----
-2--2--2--2--2--2--------2--2--2--2--2--220-----

------------------------------------------------
------------------------------------------------
---------------------------------------4--------
-----------2----------4----------------4--------
-------2h4-----4--2h4-4----------------2--------
-2--2-----------------2--2--2--2--2****---------

------------------------------------------------
------------------------------------------------
-------------------------------------------4----
-----------2----------4--------------------4----
-------2h4-----4--2h4-4--------------------2----
-2--2--------------------2--2--2--2--2--220-----

---------------------------------------------------
---------------------------------------------------
--------------------22-----------------------------
--------------------22--------------4--5--5--5--5--
---------------------------------4--4--5--5--5--5--
-2--2--2--2--2--2--2-------2--2--2--2--3--3--3--3--

Base do 2° solo:
--------------------------------|----------------------------------|-----
--------------------------------|----------------------------------|-----
--------------------------------|----------------------------------|-0//-
10--10--10--10--10--10------10--|-10--10--10--10--10--10--10--10---|-//0-
10--10--10--10--10--10--12--10--|-10--10--10--10--10--10--121012-8-|-----
-8---8---8---8---8---8---8---8--|--8---8---8---8---8---8---8---8---|...--

---------------------------------|----|
---------------------------------|----|
---------------------------------|-0/-|
---------------------------------|-/0-|
101013--12--1110--1012---8-8-8-8-|----|
-8-8-8-8-8-8-8-8-8-8-8-8-8-8-8-8-| 7X |

C5 G5    D5 A5     E5 B5      E5 E4

Verso 3:(Tou tentando tirar!)

Refrão:
   ...

5'36"
A Amaj7 D B E C# F#m A D A
It's late It's late It's late ...

So too late

E5 D5 A5 E5 D5 A5 E5 D5 A5 E5 D5 A5

------------------------------------------

3'30"   1° solo:
-----------2----------------------------------------------
-2-5b__7-----5p2------------------------------------__----
-----------------2x2b------4p2---2h4b__6t12v--p6r__4brp2--
-----------------------4-------4--------------------------
----------------------------------------------------------
----------------------------------------------------------

-------------------------------
-----2h5-5b__7__t12v_p7r__5-x--
-2h4---------------------------
-------------------------------
-------------------------------
-------------------------------

---------------------------------------------------
-(t12p)7h10t12p10b12t12p12___r10-------------------
---------------------------------6h9t12p9b11_t12---
---------------------------------------------------
---------------------------------------------------
---------------------------------------------------

---------------------------------------------------------
-7h10t12p10b12t12p12v--(t12p)12r_10p8t12p10-7------------
------------------------------------------(t12p)9b__11v--
---------------------------------------------------------
---------------------------------------------------------
---------------------------------------------------------

----------------------------------------------------
----------------------------------------------------
-r9p8p6--t12p4t12b_14p6r_4p2--t12p4-3-2-------------
-------7--------------------------------4p2---2-----
--------------------------------------------4---42-
----------------------------------------------------

-------------------------------------
---------___-------------------------
-(t12p)2-4b6t12p6r5t12p5r4t12v___       r
-------------------------------------
-------------------------------------
-------------------------------------

3'56   2° solo:
------------------------------------------------------------------
---------5--------------------------------------------------------
-7b___8------x-b8-b8-b8-b8-b8b-b8-b8-b8-b8-b8-b8-b8-b8-b8-b8-b8---
-----------8------------------------------------------------------
------------------------------------------------------------------
------------------------------------------------------------------

-----------------------------------
---------------------6---5---6---5-
-b8r7p5--7p5---5-----5---5---5---5-
-------------7-----5-7---5---7---5-
-----------------------------------
-----------------------------------

-------------___-___-----------------------------------------------
-8b10----10_r8p5-8p5-------___---5-6-5---------------5---5-6---5---
---------------------8-7-5-7p5---5-5-5---------------5---5-5---5---
-------------------------------7-5---5-------___-5---5---5-7---5---
---------------------------------------7-3-3-5/7---7---------------
-------------------------------------------------------------------
           _____
--------5--8p5h8-5-------------
-8b10--------------8-b10---8---
-------------------------------
-------------------------------
-------------------------------
-------------------------------

--------------------------___-------------------------------6-6-6-6-6-6-6-6---
-4r3---3b__5__t12__p5r3p1-3p1---1-3b5t8---6b8t15___p8r6p5---8-8-8-8-8-8-8-8...
-----2----------------------------------------------------5-------------------
------------------------------2-----------------------------------------------
------------------------------------------------------------------------------
------------------------------------------------------------------------------

Clipes

Cifra Club Pro

Aproveite o Cifra Club com benefícios exclusivos e sem anúncios
7 dias grátis
Cifra Club Pro
Aproveite o Cifra Club com benefícios exclusivos e sem anúncios
7 dias grátis