busca

A Hora do Trem Passar

Raul Seixas

Tom: G
Intro: G7M  Bm  Am  D  D6

    G7M              Bm               Am
E|-2---2---2---2--------2---2---2----0---0---0---0-----|
B|--3---3---3---3------3-3---3---3----1---1---1---1----|
G|---4---4---4---4----4---4---4---4----2---2---2---2---|
D|-----------------------------------------------------|
A|------------------2----------------0-----------------|
E|-3---------------------------------------------------|

     D        D6
E|-2---2-----------------------------------------------|
B|--3---3----------------------------------------------|
G|---2---2--4------------------------------------------|
D|-0--------0------------------------------------------|
A|-----------------------------------------------------|
E|-----------------------------------------------------|

G                        D/F#
Você tão calada e eu com medo de falar

    G               D/F#
E|-3---3---3---3----2---2---2---2----------------------|
B|--3---3---3---3----3---3---3---3---------------------|
G|---0---0---0---0----2---2---2---2--------------------|
D|-----------------------------------------------------|
A|-----------------------------------------------------|
E|-3----------------2----------------------------------|

Am              Am/G     F            D
Já não sei se é hora de partir ou de chegar
 
    Am       Am/G     F        D
E|-0---0----0---0----1---1----2---2---2----------------|
B|--1---1----1---1----1---1----3---3-------------------|
G|---2---2----2---2----2---2----2---2------------------|
D|----------------------------0------------------------|
A|-0---------------------------------------------------|
E|----------3--------1---------------------------------|

G                         D/F#
Onde eu passo agora não consigo te encontrar
Am           Am/G          F           D
Ou você já esteve aqui ou nunca vai estar
Em   G      D             C            Bm
Tudo já passou, o trem passou, o barco vai

    Em       G        D
E|-0---0----3---3----2---2---2---2---------------------|
B|--0---0----3---3----3---3---3---3--------------------|
G|---0---0----0---0----2---2---2---2-------------------|
D|-------------------0---------------------------------|
A|-----------------------------------------------------|
E|-0--------3------------------------------------------|

    C              Bm
E|-0---0--0--0-------2--2--2---------------------------|
B|--1---1--1--1-----3-3--3--3--------------------------|
G|---0---0--0--0---4---4--4--4-------------------------|
D|-----------------------------------------------------|
A|-3--------------2------------------------------------|
E|-----------------------------------------------------|

Em           D                 C    A         D
Isso é tão estranho que eu nem sei   como explicar

    Em                D                C
E|-0---0---0---0-----2---2---2---2----0---0------------|
B|--0---0---0---0-----3---3---3---3----1---1-----------|
G|---0---0---0---0-----2---2---2---2----0---0----------|
D|-------------------0---------------------------------|
A|------------------------------------3----------------|
E|-0---------------------------------------------------|

   A         D
E|-0---0----2---2---2----------------------------------|
B|--2---2----3---3-------------------------------------|
G|---2---2----2---2------------------------------------|
D|----------0------------------------------------------|
A|-0---------------------------------------------------|
E|-----------------------------------------------------|

G                         D/F#
Diga, meu amor, pois eu preciso escolher
Am         Am/G          F          D
Apagar as luzes, ficar perto de você
G                  D/F#
Ou aproveitar a solidão do amanhecer
Am            Am/G         F          D
Prá ver tudo aquilo que eu tenho que saber
G        D  A        E        B  F# A           E
La la la la la la la la la la la la la la la la la

Clipes