busca

Soul Tabaroa

Raul Seixas

Tom: A
Introdução: E A

E|---5---3-2-0------------------------------------------|
B|-5---5-------2-2---0-0-0-3-0-0-0-3-0-0-0-2------------|
G|------------------------------------------------------|
D|------------------------------------------------------|
A|------------------------------------------------------|
E|------------------------------------------------------|
                                                                 (2x)
E|---5---3-2-0------------------------------------------|
B|-5---5-------2-2---0-0-0-3-0-0-0-3-0-0----------------|
G|---------------------------------------2-2------------|
D|------------------------------------------------------|
A|------------------------------------------------------|
E|------------------------------------------------------|

E               A               E               A
Cás-cás-cás-cás-cás-cás-cás-cás-cás-cás-cás-cás O--
E               A               E               A
Cás-cás-cás-cás-cás-cás-cás-cás-cás-cás Co-
           E       A
Eu vou sentir saudade
         E                     A
Bate chinelo, bate pé, bate jibão        
           E       A
Eu vou sentir saudade
         E                     A
Bate chinelo, bate pé, bate jibão
           E       A
Eu vou sentir saudade
         E                     A
Bate chinelo, bate pé, bate jibão        
           E       A
Eu vou sentir saudade
         E                     A
Bate chinelo, bate pé, bate jibão

          E                A
Não faça pouco do xaxado amigo
               E               A7
Não seja inchirido, cabra sem pudor
         D                        C#m
Será possível que em cidade grande
                 Bm             A
É só assanhamento, não se tem amor 
         D                        C#m
Será possível que em cidade grande
                 Bm             A
É só assanhamento, não se tem amor 

           E       A
Eu vou sentir saudade
         E                     A
Bate chinelo, bate pé, bate jibão        
           E       A
Eu vou sentir saudade
         E                     A
Bate chinelo, bate pé, bate jibão
           E       A
Eu vou sentir saudade
         E                     A
Bate chinelo, bate pé, bate jibão        
           E       A
Eu vou sentir saudade
         E                     A
Bate chinelo, bate pé, bate jibão
           E       A
Eu vou sentir saudade
         E                     A
Bate chinelo, bate pé, bate jibão        
           E       A
Eu vou sentir saudade
         E                     A
Bate chinelo, bate pé, bate jibão

E               A               E               A
Cás-cás-cás-cás-cás-cás-cás-cás-cás-cás-cás-cás O--
E               A               E               A
Cás-cás-cás-cás-cás-cás-cás-cás-cás-cás Co-

Ando cabreira, ando chateada
Com o desasossego desse tal de soul
Por isso dizem que soul tabaroa
E que brigo atoa pelo interior
Por isso dizem que soul tabaroa
E que brigo atoa pelo interior

Refrão. (2x)

Clipes