Californication

Red Hot Chili Peppers

PrincipalSimplificada
A
123
X02220
Am
123
X02210
Bm
234
X24432
C
123
X32010
D
123
XX0232
D7M
123
XX0222
Dm
123
XX0231
E
123
022100
F
234
133211
F#m
34
244222
F7M
1234
1X221X
Fm
34
133111
G
123
320003
Tom: G
[Intro] Am  F
        Am  F

#1t1##1t2#E|----------------------------------------------------|
B|-----0-1--------------------------------------------|
G|-----------------------------0-2--------------------|
D|---2---2-2-0h2p0---------------0-0------------------|
A|-0---------------3---------3-------3----------------|
E|-------------------------1--------------------------|#/1t2##/1t1#

#2t1##2t2#E|----------------------------------------------------|
B|-----0-1--------------------------------------------|
G|-----------------------------0-2--------------------|
D|---2---2-2-0h2p0---------------3-3-0----------------|
A|-0---------------3---------3------------------------|
E|-------------------------1--------------------------|#/2t2##/2t1#

[Primeira Parte]

  Am   
Psychic spies from China
         F
Try to steal your mind's elation
 Am
Little girls from Sweden
          F
Dream of silver screen quotations

#3t1#   C         G         F      Dm
#3t2#E|-----0---------------------------1------------------|
B|----------------0--------------3--------------------|
G|---0---0-----------------2--------------------------|
D|--------------0---0----------0----------------------|
A|-3---------------------3---3------------------------|
E|-----------3---------1------------------------------|#/3t2##/3t1#

    C                  G
And if you want these kind of dreams
      F       Dm
It's Californication

( Am  Fm )
( Am  Fm )

         Am
It's the   edge of the world
            F
And all of western civilization
     Am
The sun may rise in the East
             F
At least it settles in the final location
     C                G
It's understood that Hollywood
       F        Dm
Sells Californication

Am    F7M
Uhhh  Uhhhh
Am    F7M
Uhhh  Uhhhh

 Am
Pay your surgeon very well
     F7M
To break the spell of aging
   Am
Celebrity Skin is this your chin
   F7M
Or is that war your waging?

 Am            F7M
First born unicorn
Am                F7M
  Hard core soft porn

[Refrão]

  C           G    Dm    Am  
Dream of Californication
  C           G    Dm
Dream of Californication
  C           G    Dm    Am  
Dream of Californication
  C           G    Dm
Dream of Californication

[Segunda Parte]

 Am
Marry me girl be my fairy to the world
       F
Be my very own constellation
   Am
A teenage bride with a baby inside
         F
Getting high on information
     C                    G
And buy me a star on the Boulevard
      F        Dm    
It's Californication

( Am  F )
( Am  F )

  Am
Space may be the final frontier
          F
But it's made in a Hollywood basement
 Am 
Cobain can you hear the spheres
         F
Singing songs off station to station
    C               G
And Alderaan's not far away
      F        Dm
It's Californication

Am    F7M
Uhhh  Uhhhh
Am    F7M
Uhhh  Uhhhh

 Am
Pay your surgeon very well
     F7M
To break the spell of aging
   Am
Celebrity Skin is this your chin
   F7M
Or is that war your waging?

 Am            F7M
First born unicorn
Am                F7M
  Hard core soft porn

[Refrão]

  C           G    Dm    Am  
Dream of Californication
  C           G    Dm
Dream of Californication
  C           G    Dm    Am  
Dream of Californication
  C           G    Dm
Dream of Californication

[Base do Solo]

( F#m  D7M )
( F#m  D7M )
( Bm  D  A  E )
( F#m  D7M )
( F#m  D7M )
( Bm  D  A  E ) 
( Bm  D  A  E )
( Bm  D  A  E )

#4t1#   F#m     D7M
#4t2#E|-2-------2-2-2--------------------------------------|
B|-2-------2-2-2--------------------------------------|
G|-2-1-----2-2-2--------------------------------------|
D|-4-4-4-2-0-0-0--------------------------------------| (2x)
A|----------------------------------------------------|
E|----------------------------------------------------|#/4t2##/4t1#

#5t1#   Bm    D      A      E
#5t2#E|-----2-----2------0------0--------------------------|
B|-----3-----3------2------0--------------------------|
G|-----4---2--------2------1--------------------------|
D|---4---0--------2--------2--------------------------|
A|-2------------0--------2----------------------------|
E|---------------------0------------------------------|#/5t2##/5t1#

#6t1#   F#m     D7M  
#6t2#E|-2-------2-2-2--------------------------------------|
B|-2-------2-2-2--------------------------------------|
G|-2-1-----2-2-2--------------------------------------|
D|-4-4-4-2-0-0-0--------------------------------------| (2x)
A|----------------------------------------------------|
E|----------------------------------------------------|#/6t2##/6t1#

#7t1#  Bm       D       A       E
#7t2#E|-----2-------2-------0-------0----------------------|
B|-----3-------3-------2-------0----------------------|
G|-----4-----2---------2-------1----------------------| (3x)
D|---4-----0---------2---------2----------------------|
A|-2---------------0---------2------------------------|
E|-------------------------0--------------------------|#/7t2##/7t1#

[Solo]

#8t1##8t2#E|----9----------9------------------------------------|
B|-10---7b9r7-10---7b9r7-7-7-7-7b5--------------------|
G|----------------------------------------------------|
D|----------------------------------------------------|
A|----------------------------------------------------|
E|----------------------------------------------------|#/8t2##/8t1#

#9t1##9t2#E|----------------------------------------------------|
B|----------5-7b9r7-7-5-------------------------------|
G|-6-6--4-6-------------6-----------------------------|
D|----------------------------------------------------|
A|----------------------------------------------------|
E|----------------------------------------------------|#/9t2##/9t1#

#10t1##10t2#E|----9-12-14~----9-12-14b16r14-----------------------|
B|-10----------10-------------------------------------|
G|----------------------------------------------------|
D|----------------------------------------------------|
A|----------------------------------------------------|
E|----------------------------------------------------|#/10t2##/10t1#

#11t1##11t2#E|-17-16-14-12-14-12----12-9-9-----9------------------|
B|-------------------14------12b14-12b14--------------|
G|----------------------------------------------------|
D|----------------------------------------------------|
A|----------------------------------------------------|
E|----------------------------------------------------|#/11t2##/11t1#

#12t1##12t2#E|----12----14b16r14-12----12----------12-10-9--------|
B|-------14-------------14----14-12-10----------------|
G|----------------------------------------------------|
D|----------------------------------------------------|
A|----------------------------------------------------|
E|----------------------------------------------------|#/12t2##/12t1#

( Am  F )
( Am  F )

[Terceira Parte]

     Am
Destruction leads to a very rough road
       F
But it also breeds creation
    Am
And earthquakes are to a girl's guitar
         F
They're just another good vibration
     C                    G
And tidal waves couldn't save the world 
      F        Dm
From Californication

Am    F7M
Uhhh  Uhhhh
Am    F7M
Uhhh  Uhhhh

 Am 
Pay your surgeon very well
     F7M
To break the spell of aging
 Am
Sicker than the rest
 
There is no test
      F7M
But this is what you're craving

 Am            F7M
First born unicorn
Am                F7M
  Hard core soft porn

[Refrão]

  C           G    Dm    Am  
Dream of Californication
  C           G    Dm
Dream of Californication
  C           G    Dm    Am  
Dream of Californication
  C           G    Dm
Dream of Californication

  C           G    Dm    Am  
Dream of Californication
  C           G    Dm
Dream of Californication
  C           G    Dm    Am  
Dream of Californication
  C           G    Dm
Dream of Californication
Composição: Anthony Kiedis / Chad Smith / Flea / John FruscianteColaboração e revisão: Getúlio Vasconcelos
Videoaula Californication (aula de violão completa)