busca

Dr. Funkeinstein

Red Hot Chili Peppers

Tom: D
e|-|------------------------------------------|--------)----------------------------|- 
B|-|-------8-10-11~~~~~--------10-11-13~~~~~--|------18---18~~~--18--18--17~~~~~----|- 
G|-|--8-10---------------10-12----------------|-------------------------------------|- 
D|-|------------------------------------------|-------------------------------------|- 
A|-|------------------------------------------|-------------------------------------|- 
E|-|------------------------------------------|-------------------------------------|- 
 
 
e|-|------------------------------------------|-----------------------------|- 
B|-|-------8-10-11~~~~~--------10-11-13~~~~~--|------8--9-10-8-7------------|- 
G|-|--8-10---------------10-12----------------|------9-10-11-9-7------------|- 
D|-|------------------------------------------|-----------------------------|- 
A|-|------------------------------------------|-----------------------------|- 
E|-|------------------------------------------|-----------------------------|- 
 
 
 
 
Verse: 
 
 
e|-|-------------------------------|--------------------------------------|- 
B|-|-------------------------------|----------------------x--8--9-10-8-7--|- 
G|-|--x-x--7--5----x-x--5-5--------|--x-x--4--5----4-5----x--9-10-11-9-7--|- 
D|-|-------------------------------|--------------------------------------|- 
A|-|-------------------------------|--------------------------------------|- 
E|-|-------------------------------|--------------------------------------|- 
 
 
 
The last bar of the intro 
could be played like this. 
 
 
e|-|-----------------------|- 
B|-|------5-6-7-5----------|- 
G|-|--------------7--------|- 
D|-|-----------------------|- 
A|-|-----------------------|- 
E|-|-----------------------|- 
 
 
 
 
Bass: 
 
 
G|-|--------------------|-----7--5----5--5--4--------|- 
D|-|--------------------|----------------------------|- 
A|-|--------------------|----------------------------|- 
E|-|--1--------3--------|----------------------------|- 
 
 
G|-|--------------------|----------------------------|- 
D|-|--------------------|----Rest--------------------|- 
A|-|--------------------|----------------------------|- 
E|-|--1--------3--------|----------------------------|- 
 
 
 
 
Verse:  
 
 
     w/ Variations 
G|-|-------------------------------|---------------------------------|- 
D|-|-------------------------------|---------------------------------|- 
A|-|--5--3-------2---3-3------3----|--3--5--------2--3----------3----|- 
E|-|----------5-------------5---5--|--------------------------5---5--|- 
 
 
G|-|-------------------------------|---------------------------------|- 
D|-|--------------3---4-4----------|---------------------------------|- 
A|-|--5--3----3---------------3----|--3--5--------2--3----------3----|- 
E|-|------------------------5---5--|--------------------------5---5--|-

Clipes