busca

Easily

Red Hot Chili Peppers

Tom: C
Intro:
E|--0-----------------0----1-------1--------------------------------
B|--1-----------------3----3---3---3---3------3----1---1----0---1---
G|--2-----2^-(2)-/-0--2----2---2---2---2--0---0----2---2----0---0---
D|--2----------------------0---0---0---0------0----3---3----0---2---
A|--0--------------------------------------------------3------------
E|------------------------------------------------------------------

E|------0-----------------------------------------------------------
B|------1----1---1--------------------------------------------------
G|---0-------2---2--------------------------------------------------
D|---2-------2---2--------------------------------------------------
A|-----------0---0--------------------------------------------------
E|------------------------------------------------------------------


Am   Dm  F                Am        Dm   F                  Am
Easily   lets get carried away, Easily   lets get married today
                   Dm                    F                  Am
Shao Lin shouted a rose from his throat    Everything must  go
                               Dm                  F
A lickin stick is thicker when you break it to show
                  Am
Everything must   go


C 8x(10)988  G - 3x5433  F - 1x3211  Am - 5x7555

    C                       G             F      C
The story of a woman on the morning of a war, Remind me if you will exactly
 G                   F    Am                  G                 F
what we're fighting for,  Calling calling for something in the air
Am                   G                 F
Calling Calling   I know you must be there



Solo 1
E|--------------------------------------------------
B|--17---15--17b20r17--15----13---15-12h13----------
G|--------------------------------------------------
D|--------------------------------------------------
A|--------------------------------------------------
E|--------------------------------------------------

E|--------------------------------------------------
B|--13---12-13b15r13----15b17---17r15---12-12h13----
G|--------------------------------------------------
D|--------------------------------------------------
A|--------------------------------------------------
E|--------------------------------------------------


Am                   Dm                   F               Am
Shao Lin shakin for the sake of his soul  Everything must go
              Dm                          F               Am
Lookin mighty tired of all the things that you own      Everything must go

Solo 2

E|-15-13-12-13-12--------12-----15--13-12-13-12--------12-----------
B|----------------13--12----13------------------13--12----13--------
G|------------------------------------------------------------------
D|------------------------------------------------------------------
A|------------------------------------------------------------------
E|------------------------------------------------------------------

E|-17--15----15-------13/15-----17-15----15-------15----------------
B|--------17----17-15-------17--------17----17-15----17-------------
G|------------------------------------------------------------------
D|------------------------------------------------------------------
A|------------------------------------------------------------------
E|------------------------------------------------------------------

E|-15--13-12-13-12--------12------15--13-12-13-12--------12---------
B|-----------------13--12----13-------------------13--12----13------
G|------------------------------------------------------------------
D|------------------------------------------------------------------
A|------------------------------------------------------------------
E|------------------------------------------------------------------

E|-17--15----15--------12-15/12-17--15----15----17^-17-15----15-----
B|--------17----17--13-----------------17----17-----------17----17~~
G|------------------------------------------------------------------
D|------------------------------------------------------------------
A|------------------------------------------------------------------
E|------------------------------------------------------------------

E|-15--13-12-13-12--------12----------------------------------------
B|-----------------13--12----13-----13-12-13-12---------------------
G|-------------------------------12-------------12------------------
D|--------------------------------------------------14--14-/(10)-14-
A|------------------------------------------------------------------
E|------------------------------------------------------------------

E|-15/(17)~~-17-15--------15-------17^-17-15-17-15-------15---------
B|-----------------17--15----17~~------------------17-15----13~~~---
G|------------------------------------------------------------------
D|------------------------------------------------------------------
A|------------------------------------------------------------------
E|------------------------------------------------------------------

Clipes

Cifra Club Pro

Aproveite o Cifra Club com benefícios exclusivos e sem anúncios
7 dias grátis
Cifra Club Pro
Aproveite o Cifra Club com benefícios exclusivos e sem anúncios
7 dias grátis