busca

Fortune Faded

Red Hot Chili Peppers

Tom: D
Introdução: F#

Riff da Introdução:

E|---------------------------------------------9--9--9|
B|-----------------------10-----10-----10-------------|
G|---11---------11-----------11-----11-----11---------|
D|-9----11--9-9----11-9-------------------------------|
A|----------------------------------------------------|
E|----------------------------------------------------|

E|----------------------------------------------------|
B|-----------------------10--------10-----------------|
G|---11---------11------------11--------11\-----------|
D|-9----11--9-9----11-9-------------------------------|
A|----------------------------------------------------|
E|----------------------------------------------------|


Primeira Estrofe:

Bm
They say in chess you gotta kill
                               D
The queen and then you made it
      A
Oh I,   do you?
Bm
A funny thing
                                       D
The king who gets himself assassinated
         A            (Riff)
Hey now, every time I lose

Altitude

(Riff da Primeira Estrofe)

E|----------------------------------------------------|
B|-----------------------10--------10-----------------|
G|---11---------11------------11--------11\-----------|
D|-9----11--9-9----11-9-------------------------------|
A|----------------------------------------------------|
E|----------------------------------------------------|


Segunda Estrofe:

Bm
You took a town by storm
                                D
The mess you made was nominated
      A
Oh I,   do you?
Bm
Now put away your welcome
                                      D
Soon you'll find you've overstayed it
         A            (Riff)
Hey now, every time I lose

Altitude

(Riff da Segunda Estrofe)

E|----------------------------------------------------|
B|-----------------------10-----10-----10-------------|
G|---11---------11-----------11-----11-----11---------|
D|-9----11--9-9----11-9-------------------------------|
A|----------------------------------------------------|
E|----------------------------------------------------|

E|----------------------------------------------------|
B|-10-----10-----10-----------------------------------|
G|----11-----11-----11--------------------------------|
D|----------------------------------------------------|
A|----------------------------------------------------|
E|----------------------------------------------------|


Primeiro Refrão:

 A         D  A  G
So divine,         hell of an elevator
Bm
All the while my fortune faded
 A         D  A  G                           Bm
Never mind         the consequences of the crime

This time my fortune faded


(Riff da Introdução)


Terceira Estrofe:

Bm
The medicated state of mind
                      D
You find is overrated
      A
Oh I,   do you?
Bm
You saw it all come down and now
                        D
It's time to imitate it
         A            (Riff)
Hey now, every time I lose

Altitude

(Riff da Terceira Estrofe)

E|----------------------------------------------------|
B|-----------------------10-----10-----10-------------|
G|---11---------11-----------11-----11-----11---------|
D|-9----11--9-9----11-9-------------------------------|
A|----------------------------------------------------|
E|----------------------------------------------------|

E|----------------------------------------------------|
B|-10-----10-----10-----------------------------------|
G|----11-----11-----11--------------------------------|
D|----------------------------------------------------|
A|----------------------------------------------------|
E|----------------------------------------------------|


Segundo Refrão:

 A         D  A  G
So divine,         hell of an elevator
Bm
All the while my fortune faded
 A         D  A  G                           Bm
Never mind         the consequences of the crime

This time my fortune faded


Ponte:

Come on God, do I seem bulletproof?


( F# )


Terceiro Refrão:

 A         D  A  G
So divine,         hell of an elevator
Bm
All the while my fortune faded
 A         D  A  G                           Bm
Never mind         the consequences of the crime

This time my fortune faded

 A         D  A  G
So divine,         hell of an elevator
Bm
All the while my fortune faded
 A         D  A  G                           Bm
Never mind         the consequences of the crime

This time my fortune faded

Clipes

Cifra Club Pro

Aproveite o Cifra Club com benefícios exclusivos e sem anúncios
7 dias grátis
Cifra Club Pro
Aproveite o Cifra Club com benefícios exclusivos e sem anúncios
7 dias grátis