busca

Freaky Styley

Red Hot Chili Peppers

Intro: 
G-|---5-------5-5------| 
D-|---5-------5-5------| 
A-|--------------------| 
E-|--------------------| 
      P       P P 
Repeat two times 
 
Verse & Chours & ...(whole song): 
G-|---------5-----------5-5--| 
D-|---------5-----------5-5--| 
A-|---8-0---------8-0--------| 
E-|--------------------------|

Clipes