A
123
X02220
B
234
X24442
C#m
234
X46654
E
123
022100
E7+
1234
XX2444
Tom: G
#1t1#Intro: 4x
#1t2#-----#/1t2##/1t1#

#2t1#    E7+
#2t2#E|-----------------------------------------| 
B|-----------------------------------------| 
G|----------------------------------9-9----| 
D|-------------9^-----------------9-----11-| 
A|---7---911-----------7---911-----------| 
E|-----------------------------------------| #/2t2##/2t1#

#3t1##3t2#E|--------------------------------------------------| 
B|--------------------------------------------------| 
G|----------------------------------13-13--11-11--9-| 
D|-------------9^-----------------9-----------------| 
A|---7---911-----------7---911--------------------| 
E|--------------------------------------------------| #/3t2##/3t1#

#4t1##4t2#E|-----------------------------------------| 
B|-----------------------------------------| 
G|----------------------------------9-9----| 
D|-------------9^-----------------9-----11-| 
A|---7---911-----------7---911-----------| 
E|-----------------------------------------| #/4t2##/4t1#

#5t1##5t2#E|------------------------------------------------| 
B|---------------------------------12-12----------| 
G|---------------------------------------13-13----| 
D|-------------9^----------------9-------------14-| 
A|---7---911-----------7---911------------------| 
E|------------------------------------------------| #/5t2##/5t1#


#6t1#Refrão/Verso: 
#6t2#------------ #/6t2##/6t1#

#7t1#Tablatura: 2x
    C#m                  B             E 
#7t2#E|--9-----9---9----------7--7----------7----7----7--7--7-----7-| 
B|--9-----9---9----------7--7----------9----9----9-10--9h10--9-| 
G|--9-----9---9----------8--8----------9----9----9--9--9-----9-| 
D|--11----11--11---------9--9----------9----9----9--9--9-----9-| 
A|--11----11--11---------9--9----------7----7----7--7--7-----7-| 
E|--9-----9---9----------7--7----------------------------------| #/7t2##/7t1#

#8t1#    B                  A             E 
#8t2#E|--7----7--7----------5--5----------0----0--0----0-| 
B|--7----7--7----------5--5----------0----0--0----0-| 
G|--8----8--8----------6--6----------1----1--1----1-| 
D|--9----9--9----------7--7----------2----2--2----2-| 
A|--9----9--9----------7--7----------2----2--2----2-| 
E|--7----7--7----------5--5----------0----0--0----0-| #/8t2##/8t1#

#9t1#    C#m                  B             E 
#9t2#E|--9-----9---9----------7--7----------7----7----7--7--7--12--12-| 
B|--9-----9---9----------7--7----------9----9----9-10--9--12--12-| 
G|--9-----9---9----------8--8----------9----9----9--9--9---9---9-| 
D|--11----11--11---------9--9----------9----9----9--9--9---9---9-| 
A|--11----11--11---------9--9----------7----7----7--7--7---7---7-| 
E|--9-----9---9----------7--7------------------------------------| #/9t2##/9t1#

#10t1#    B                  A            C#m 
#10t2#E|--7----7--7----------5--5----------9-----9---9-----9---9-| 
B|--7----7--7----------5--5----------9-----9---9-----9---9-| 
G|--8----8--8----------6--6----------9-----9---9-----9---9-| 
D|--9----9--9----------7--7---------11----11--11----11--11-| 
A|--9----9--9----------7--7---------11----11--11----11--11-| 
E|--7----7--7----------5--5----------9-----9---9-----9---9-| #/10t2##/10t1#

Cifra:

C#m          B            E 
Some people say you hate me,
B                     A                        E 
I don't believe it's true, things that you're going through
C#m          B            E
Some people say you hate me,
B                     A                       C#m
I don't believe it's you, things that you're going through,
C#m          B          E
Some people sad I pray for,
B                   A                  E
No one you want to live, the eyes that once were his
C#m          B          E
Some people sad I pray for,
B                    A                 C#m
The way you want to live, the eyes you want to give

#11t1#Intro: 3x
#11t2#----- #/11t2##/11t1#

#12t1#Refrão/Verso: -(a tablatura é a mesma e faça 2x!)
#12t2#------------ #/12t2##/12t1#

Cifra:

C#m          B              E
Some people say you played me,
B                     A                          E
I don't care if it's true, I'm waiting here for you,
C#m          B            E
Some people say you made it,
B                   A                    C#m
I'm not afraid to know, when things are getting low
C#m          B            E
Some people say you hate me,
B                     A                        E
I don't believe it's true, things that you're going through
C#m          B            E
Some people say you hate me,
B                     A                       C#m
I don't believe it's you, things that you're going through

#13t1#Intro: - 3x 
#13t2#----- #/13t2##/13t1#


#14t1#Final: (fica um pouco mais lento o final)
#14t2#----- #/14t2##/14t1#
#15t1#     E7+
#15t2#E|-----------------------------------------| 
B|-----------------------------------------| 
G|----------------------------------9-9----| 
D|-------------9^-----------------9-----11-| 
A|---7---911-----------7---911-----------| 
E|-----------------------------------------| #/15t2##/15t1#

#16t1##16t2#E|--------------------------------------------------| 
B|--------------------------------------------------| 
G|----------------------------------13-13--11-11--9-| 
D|-------------9^-----------------9-----------------| 
A|---7---911-----------7---911--------------------| 
E|--------------------------------------------------| #/16t2##/16t1#

#17t1##17t2#E|-----------------------------------------| 
B|-----------------------------------------| 
G|----------------------------------9-9----| 
D|-------------9^-----------------9-----11-| 
A|---7---911-----------7---911-----------| 
E|-----------------------------------------| #/17t2##/17t1#

#18t1##18t2#E|----------------------------------------------------| 
B|-------------------------12-12----------------------| 
G|------------------------------13-13-----------------| 
D|---------9^------------9-----------14-14--11-11--14-| 
A|-7--911------7---911------------------------------| 
E|----------------------------------------------------| #/18t2##/18t1#

#19t1#    E
#19t2#E|--7-----------| 
B|--9-----------| 
G|--9-----------| 
D|--9-----------| 
A|--7-----------| 
E|--0-----------|#/19t2##/19t1#
Composição: Colaboração e revisão: