busca

Gong Li

Red Hot Chili Peppers

Tom: E
Intro: 4x
-----

    E7+
E|-----------------------------------------| 
B|-----------------------------------------| 
G|----------------------------------9-9----| 
D|-------------9^-----------------9-----11-| 
A|---7---911-----------7---911-----------| 
E|-----------------------------------------| 

E|--------------------------------------------------| 
B|--------------------------------------------------| 
G|----------------------------------13-13--11-11--9-| 
D|-------------9^-----------------9-----------------| 
A|---7---911-----------7---911--------------------| 
E|--------------------------------------------------| 

E|-----------------------------------------| 
B|-----------------------------------------| 
G|----------------------------------9-9----| 
D|-------------9^-----------------9-----11-| 
A|---7---911-----------7---911-----------| 
E|-----------------------------------------| 

E|------------------------------------------------| 
B|---------------------------------12-12----------| 
G|---------------------------------------13-13----| 
D|-------------9^----------------9-------------14-| 
A|---7---911-----------7---911------------------| 
E|------------------------------------------------| 


Refrão/Verso: 
------------ 

Tablatura: 2x
    C#m                  B             E 
E|--9-----9---9----------7--7----------7----7----7--7--7-----7-| 
B|--9-----9---9----------7--7----------9----9----9-10--9h10--9-| 
G|--9-----9---9----------8--8----------9----9----9--9--9-----9-| 
D|--11----11--11---------9--9----------9----9----9--9--9-----9-| 
A|--11----11--11---------9--9----------7----7----7--7--7-----7-| 
E|--9-----9---9----------7--7----------------------------------| 

    B                  A             E 
E|--7----7--7----------5--5----------0----0--0----0-| 
B|--7----7--7----------5--5----------0----0--0----0-| 
G|--8----8--8----------6--6----------1----1--1----1-| 
D|--9----9--9----------7--7----------2----2--2----2-| 
A|--9----9--9----------7--7----------2----2--2----2-| 
E|--7----7--7----------5--5----------0----0--0----0-| 

    C#m                  B             E 
E|--9-----9---9----------7--7----------7----7----7--7--7--12--12-| 
B|--9-----9---9----------7--7----------9----9----9-10--9--12--12-| 
G|--9-----9---9----------8--8----------9----9----9--9--9---9---9-| 
D|--11----11--11---------9--9----------9----9----9--9--9---9---9-| 
A|--11----11--11---------9--9----------7----7----7--7--7---7---7-| 
E|--9-----9---9----------7--7------------------------------------| 

    B                  A            C#m 
E|--7----7--7----------5--5----------9-----9---9-----9---9-| 
B|--7----7--7----------5--5----------9-----9---9-----9---9-| 
G|--8----8--8----------6--6----------9-----9---9-----9---9-| 
D|--9----9--9----------7--7---------11----11--11----11--11-| 
A|--9----9--9----------7--7---------11----11--11----11--11-| 
E|--7----7--7----------5--5----------9-----9---9-----9---9-| 

Cifra:

C#m          B            E 
Some people say you hate me,
B                     A                        E 
I don't believe it's true, things that you're going through
C#m          B            E
Some people say you hate me,
B                     A                       C#m
I don't believe it's you, things that you're going through,
C#m          B          E
Some people sad I pray for,
B                   A                  E
No one you want to live, the eyes that once were his
C#m          B          E
Some people sad I pray for,
B                    A                 C#m
The way you want to live, the eyes you want to give

Intro: 3x
----- 

Refrão/Verso: -(a tablatura é a mesma e faça 2x!)
------------ 

Cifra:

C#m          B              E
Some people say you played me,
B                     A                          E
I don't care if it's true, I'm waiting here for you,
C#m          B            E
Some people say you made it,
B                   A                    C#m
I'm not afraid to know, when things are getting low
C#m          B            E
Some people say you hate me,
B                     A                        E
I don't believe it's true, things that you're going through
C#m          B            E
Some people say you hate me,
B                     A                       C#m
I don't believe it's you, things that you're going through

Intro: - 3x 
----- 


Final: (fica um pouco mais lento o final)
----- 
     E7+
E|-----------------------------------------| 
B|-----------------------------------------| 
G|----------------------------------9-9----| 
D|-------------9^-----------------9-----11-| 
A|---7---911-----------7---911-----------| 
E|-----------------------------------------| 

E|--------------------------------------------------| 
B|--------------------------------------------------| 
G|----------------------------------13-13--11-11--9-| 
D|-------------9^-----------------9-----------------| 
A|---7---911-----------7---911--------------------| 
E|--------------------------------------------------| 

E|-----------------------------------------| 
B|-----------------------------------------| 
G|----------------------------------9-9----| 
D|-------------9^-----------------9-----11-| 
A|---7---911-----------7---911-----------| 
E|-----------------------------------------| 

E|----------------------------------------------------| 
B|-------------------------12-12----------------------| 
G|------------------------------13-13-----------------| 
D|---------9^------------9-----------14-14--11-11--14-| 
A|-7--911------7---911------------------------------| 
E|----------------------------------------------------| 

    E
E|--7-----------| 
B|--9-----------| 
G|--9-----------| 
D|--9-----------| 
A|--7-----------| 
E|--0-----------|

Clipes