busca

Live At Slane

Red Hot Chili Peppers

Tom: F
Introdução de Live at Slane : 


E|-------------------------------------------------------------------------| 
B|-------------------------------------------------------------------------|
G|-------------------------------------------------------------------------|
D|-------------------------------------------------------------------------| 
A|-----------------------13-----------------10-10~-------------------------| 
E|-10~-10-10-12-13-13-13p10--10~-10-10-10-10p8------10~-10-10-12-13--------|

E|-------------------------------------------------------------------------| 
B|-------------------------------------------------------------------------|
G|-------------------------------------------------------------------------|
D|-------------------------------------------------------------------------|  
A|----------13~------------------10-10~------------------------------------| 
E|-13^-13-10---10~-10~-10-10-10p8--8---10~-10-10-12-13-13-13p10------------| 

E|-------------------------------------------------------------------------| 
B|-------------------------------------------------------------------------|
G|-------------------------------------------------------------------------|
D|-------------------------------------------------------------------------|  
A|-13~----------------10-10~---------------------------13-15~-15~----------| 
E|---10~-10-10-10-10p8-----10~-10-10-10-10-12-13^-13-10--------------------| 


E|-------------------------------------------------------------------------| 
B|-------------------------------------------------------------------------|
G|-------------------------------------------------------------------------| 
D|------14-----14-----14-----14--------------------------------------------| 
B|-15-13--15-13--15-13--15-13----------------------------------------------| 
E|------------------------------15^~-15^~-15-13-12-15-13-12-13-------------| 

E|-------------------------------------------------------------------------| 
B|-------------------------------------------------------------------------|
G|-------------------------------------------------------------------------|
D|-------------------------------------------------------------------------|
A|-------------------------------------------------------------------------|
E|-15^~-15-15-13-12-13~-13-15^-15-15-13-12-13~-13-13^-13^-13~-15^-15-15----| 

E|-------------------------------------------------------------------------| 
B|-------------------------------------------------------------------------|
G|-------------------------------------------------------------------------|
D|-------------------------------------------------------------------------|
A|-------------20^-20-18-17-18~-18-20^--20-18-17-17~-17-19^18--------------| 
E|-13-12-13~-13--20-------------------20-----------------------------------| 

E|-------------------------------------------------------------------------| 
B|-------------------------------------------------------------------------|
G|-------------------------------------------------------------------------|
D|-------------------------------------------------------------------------|  
A|-19^18-19^18-19^18-17^15 17^15-17^15-17^15-17^15-17^15-17^15-17^15-17^15-| 
E|-------------------------------------------------------------------------| 

E|-------------------------------------------------------------------------| 
B|-------------------------------------------------------------------------|
G|-------------------------------------------------------------------------|
D|--------------------------------------------------------15-14------------| 
A|-17^15-17^15-17^15-17^15-17^15-17^15-15p-13-13-13~-13-13-----20^-18-20^--| 
E|-------------------------------------------------------------------------|  

E|-------------------------------------------------------------------------| 
B|-------------------------------------------------------------------------|
G|-------------------------------------------------------------------------|
D|-------------------------------------------------------------------------|   
A|-18-20^-18-20^-18-20^-18-20^-18-20^-18-20^-18-20^-18-20^-18-20^--20^-----| 
E|---------------------------------------------------------------20--------| 

E|-------------------------------------------------------------------------| 
B|-------------------------------------------------------------------------|
G|-------------------------------------------------------------------------|
D|-------------------------------------------------------------------------|   
A|---20^--------------------------17--17--18-20-----20--20-----------------| 
E|-20-20-20^-20^-20-20^-20^-17-20^--20--20-----17-20--17-------------------| 

E|-------------------------------------------------------------------------| 
B|-------------------------------------------------------------------------|
G|-------------------------------------------------------------------------|
D|-------------------------------------------------------------------------19~~-|  
A|--20-18-20--20-18-20-20p18p17-20p18p17-20p18p17-20p18p17-20p18p17-20p18p17----| 
E|17--------17-------------------------------------------------------------| 

Clipes

Cifra Club Pro

Aproveite o Cifra Club com benefícios exclusivos e sem anúncios
7 dias grátis
Cifra Club Pro
Aproveite o Cifra Club com benefícios exclusivos e sem anúncios
7 dias grátis