busca

Live In Slane Castle

Red Hot Chili Peppers

Tom: C
intro
-10-10-10-12-13-13-13-12-10-------------------------------------10-10-10-10---
----------------------------13-15-15-15-15-15-15-15-13-10-10-10---------------
------------------------------------------------------------------------------
------------------------------------------------------------------------------
------------------------------------------------------------------------------
------------------------------------------------------------------------------

-10-12-13-13-15-12-10-------------------------------10-10-10-10-10-12-13-13---
----------------------13-15-15-15-15-15-15-13-10-10---------------------------
------------------------------------------------------------------------------
------------------------------------------------------------------------------
------------------------------------------------------------------------------
------------------------------------------------------------------------------

-13-12-10----------------------------------10-10-10-10-10-12-13-13-15-12-10---
----------13-15-15-15-15-15-15-15-13-10-10------------------------------------
------------------------------------------------------------------------------
------------------------------------------------------------------------------
------------------------------------------------------------------------------
------------------------------------------------------------------------------

--------------------------------------------15b-15r-13-12-13-15b-15r-13-12----
-13-15-15p13p10-15p13p10-15p13p10-15p13p10------------------------------------
------------------------------------------------------------------------------
------------------------------------------------------------------------------
------------------------------------------------------------------------------
------------------------------------------------------------------------------

-13-15b-15r-13-12-13-13b-13b-13-15b-15r-13-12-13-15b-20-15-13-12-13-15b-20----
------------------------------------------------------------------------------
------------------------------------------------------------------------------
------------------------------------------------------------------------------
------------------------------------------------------------------------------
------------------------------------------------------------------------------

-15-13-12-13-13b-13b-13b-10b-10b-10b-10b-10b-10b-10b-10b-10b-10-8-10-8-8-5-8--
------------------------------------------------------------------------------
------------------------------------------------------------------------------
------------------------------------------------------------------------------
------------------------------------------------------------------------------
------------------------------------------------------------------------------

-5\-15br-15br-15br-15br-15br-15b-20-15b-20-15b-20-20br-20b-20br-17-20br-17----
------------------------------------------------------------------------------
------------------------------------------------------------------------------
------------------------------------------------------------------------------
------------------------------------------------------------------------------
------------------------------------------------------------------------------

-18-17-18-17-13-15-17-15-17-13-13-20-20-17-18-17-18-17-13-13-15-17-17-15-13---
------------------------------------------------------------------------------
------------------------------------------------------------------------------
------------------------------------------------------------------------------
------------------------------------------------------------------------------
------------------------------------------------------------------------------

-12-15p13p12-15p13p12-15p13p12-15p13p12-10vvv---------------------------------
------------------------------------------------------------------------------
------------------------------------------------------------------------------
------------------------------------------------------------------------------
------------------------------------------------------------------------------
------------------------------------------------------------------------------

Toque em 3 tempos:

E|-----------------------------------------------------------
B|--15v-15v-15-15-15h18-18-18-18bu-18bd-15-15-15v-15v--------
G|----------------------------------------------------14v-14v
D|-----------------------------------------------------------
A|-----------------------------------------------------------
E|-----------------------------------------------------------

Toque em 4 tempos::

E|-----------------------------------------------------------
B|--15v-15v-15-15-15h18-18-18-18bu-18bd-15-15-15v-15v--------
G|-----------------------------------------------------17-14-
D|-----------------------------------------------------------
A|-----------------------------------------------------------
E|-----------------------------------------------------------

E|-----------------------------------------------------------
B|-----------------------------------------------------------
G|--17-14-14-17-14-14-17-14-14 etc---------------------------
D|-----------------------------------------------------------
A|-----------------------------------------------------------
E|-----------------------------------------------------------

Toque em 3 tempos:

E|--------------------------------------------------------
B|--21bu----21bu-21-19----18v-----------------------------
G|--------------------21---------------------------------
D|--------------------------------------------------------
A|--------------------------------------------------------
E|--------------------------------------------------------

Toque em 4 tempos:

E|-----------------------------------------------------------
B|--19bu---19bu---18v----------------------------------------
G|-----------------------------------------------------------
D|-----------------------------------------------------------
A|-----------------------------------------------------------
E|-----------------------------------------------------------

E|--------------------------------------------------------
B|--21bu----21bu-21-19----18v-----------------------------
G|---------------------21---------------------------------
D|--------------------------------------------------------
A|--------------------------------------------------------
E|--------------------------------------------------------

Toque em 2 tempos:

E|--------19------------------------------------------------
B|--21bu-----21bu-21-19----18v------------------------------
G|----------------------21----------------------------------
D|----------------------------------------------------------
A|----------------------------------------------------------
E|----------------------------------------------------------

Toque em 4 tempos:

E|----------------------------------------------------------
B|---20bu-20bd-18-------------------------------------------
G|----------------------------------------------------------
D|----------------------------------------------------------
A|----------------------------------------------------------
E|----------------------------------------------------------

E|-----------------------------------------------------------
B|---15h17bu17bd repeat loads then 13-13-13-13-10-10-10-10-10
G|-----------------------------------------------------------
D|-----------------------------------------------------------
A|-----------------------------------------------------------
E|-----------------------------------------------------------

E|-----------------------------------------------------------
B|---19h21bu21bd repeat loads--------------------------------
G|-----------------------------------------------------------
D|-----------------------------------------------------------
A|-----------------------------------------------------------
E|-----------------------------------------------------------

Toque em 3 tempos:

E|---------20------------------------------------------------
B|---21bu----------------------------------------------------
G|-----------------------------------------------------------
D|-----------------------------------------------------------
A|-----------------------------------------------------------
E|-----------------------------------------------------------

Terminando , essa é a parte com mais feeling da musica:

E|--21bu--21bu-------21bu-21bd-------------------------------
B|------------------------------18-20-18-20-18-18-18v--------
G|-----------------------------------------------------------
D|-----------------------------------------------------------
A|-----------------------------------------------------------
E|-----------------------------------------------------------

E|---------------21bu----------------------------------------
B|--20-18-18-18-------18-20--18-20-18-20-18-18v--------------
G|-----------------------------------------------------------
D|-----------------------------------------------------------
A|-----------------------------------------------------------
E|-----------------------------------------------------------

E|-----------------------------------------------------------
B|----18h20po18--18h20po18--18h20po18--18h20po18--18h20po18--
G|-----------------------------------------------------------
D|-----------------------------------------------------------
A|-----------------------------------------------------------
E|-----------------------------------------------------------

E|-----------------------------------------------------------
B|----18h20po18--18h20po18--18h20po18--18h20po18-------------
G|------------------------------------------------19v--------
D|-----------------------------------------------------------
A|-----------------------------------------------------------
E|-----------------------------------------------------------

Clipes