Live In Slane Castle

Red Hot Chili Peppers

Tom: G
#1t1#intro
#1t2#-10-10-10-12-13-13-13-12-10-------------------------------------10-10-10-10---
----------------------------13-15-15-15-15-15-15-15-13-10-10-10---------------
------------------------------------------------------------------------------
------------------------------------------------------------------------------
------------------------------------------------------------------------------
------------------------------------------------------------------------------#/1t2##/1t1#

#2t1##2t2#-10-12-13-13-15-12-10-------------------------------10-10-10-10-10-12-13-13---
----------------------13-15-15-15-15-15-15-13-10-10---------------------------
------------------------------------------------------------------------------
------------------------------------------------------------------------------
------------------------------------------------------------------------------
------------------------------------------------------------------------------#/2t2##/2t1#

#3t1##3t2#-13-12-10----------------------------------10-10-10-10-10-12-13-13-15-12-10---
----------13-15-15-15-15-15-15-15-13-10-10------------------------------------
------------------------------------------------------------------------------
------------------------------------------------------------------------------
------------------------------------------------------------------------------
------------------------------------------------------------------------------#/3t2##/3t1#

#4t1##4t2#--------------------------------------------15b-15r-13-12-13-15b-15r-13-12----
-13-15-15p13p10-15p13p10-15p13p10-15p13p10------------------------------------
------------------------------------------------------------------------------
------------------------------------------------------------------------------
------------------------------------------------------------------------------
------------------------------------------------------------------------------#/4t2##/4t1#

#5t1##5t2#-13-15b-15r-13-12-13-13b-13b-13-15b-15r-13-12-13-15b-20-15-13-12-13-15b-20----
------------------------------------------------------------------------------
------------------------------------------------------------------------------
------------------------------------------------------------------------------
------------------------------------------------------------------------------
------------------------------------------------------------------------------#/5t2##/5t1#

#6t1##6t2#-15-13-12-13-13b-13b-13b-10b-10b-10b-10b-10b-10b-10b-10b-10b-10-8-10-8-8-5-8--
------------------------------------------------------------------------------
------------------------------------------------------------------------------
------------------------------------------------------------------------------
------------------------------------------------------------------------------
------------------------------------------------------------------------------#/6t2##/6t1#

#7t1##7t2#-5\-15br-15br-15br-15br-15br-15b-20-15b-20-15b-20-20br-20b-20br-17-20br-17----
------------------------------------------------------------------------------
------------------------------------------------------------------------------
------------------------------------------------------------------------------
------------------------------------------------------------------------------
------------------------------------------------------------------------------#/7t2##/7t1#

#8t1##8t2#-18-17-18-17-13-15-17-15-17-13-13-20-20-17-18-17-18-17-13-13-15-17-17-15-13---
------------------------------------------------------------------------------
------------------------------------------------------------------------------
------------------------------------------------------------------------------
------------------------------------------------------------------------------
------------------------------------------------------------------------------#/8t2##/8t1#

#9t1##9t2#-12-15p13p12-15p13p12-15p13p12-15p13p12-10vvv---------------------------------
------------------------------------------------------------------------------
------------------------------------------------------------------------------
------------------------------------------------------------------------------
------------------------------------------------------------------------------
------------------------------------------------------------------------------#/9t2##/9t1#

Toque em 3 tempos:

#10t1##10t2#E|-----------------------------------------------------------
B|--15v-15v-15-15-15h18-18-18-18bu-18bd-15-15-15v-15v--------
G|----------------------------------------------------14v-14v
D|-----------------------------------------------------------
A|-----------------------------------------------------------
E|-----------------------------------------------------------#/10t2##/10t1#

Toque em 4 tempos::

#11t1##11t2#E|-----------------------------------------------------------
B|--15v-15v-15-15-15h18-18-18-18bu-18bd-15-15-15v-15v--------
G|-----------------------------------------------------17-14-
D|-----------------------------------------------------------
A|-----------------------------------------------------------
E|-----------------------------------------------------------#/11t2##/11t1#

#12t1##12t2#E|-----------------------------------------------------------
B|-----------------------------------------------------------
G|--17-14-14-17-14-14-17-14-14 etc---------------------------
D|-----------------------------------------------------------
A|-----------------------------------------------------------
E|-----------------------------------------------------------#/12t2##/12t1#

Toque em 3 tempos:

#13t1##13t2#E|--------------------------------------------------------
B|--21bu----21bu-21-19----18v-----------------------------
G|--------------------21---------------------------------
D|--------------------------------------------------------
A|--------------------------------------------------------
E|--------------------------------------------------------#/13t2##/13t1#

Toque em 4 tempos:

#14t1##14t2#E|-----------------------------------------------------------
B|--19bu---19bu---18v----------------------------------------
G|-----------------------------------------------------------
D|-----------------------------------------------------------
A|-----------------------------------------------------------
E|-----------------------------------------------------------#/14t2##/14t1#

#15t1##15t2#E|--------------------------------------------------------
B|--21bu----21bu-21-19----18v-----------------------------
G|---------------------21---------------------------------
D|--------------------------------------------------------
A|--------------------------------------------------------
E|--------------------------------------------------------#/15t2##/15t1#

Toque em 2 tempos:

#16t1##16t2#E|--------19------------------------------------------------
B|--21bu-----21bu-21-19----18v------------------------------
G|----------------------21----------------------------------
D|----------------------------------------------------------
A|----------------------------------------------------------
E|----------------------------------------------------------#/16t2##/16t1#

Toque em 4 tempos:

#17t1##17t2#E|----------------------------------------------------------
B|---20bu-20bd-18-------------------------------------------
G|----------------------------------------------------------
D|----------------------------------------------------------
A|----------------------------------------------------------
E|----------------------------------------------------------#/17t2##/17t1#

#18t1##18t2#E|-----------------------------------------------------------
B|---15h17bu17bd repeat loads then 13-13-13-13-10-10-10-10-10
G|-----------------------------------------------------------
D|-----------------------------------------------------------
A|-----------------------------------------------------------
E|-----------------------------------------------------------#/18t2##/18t1#

#19t1##19t2#E|-----------------------------------------------------------
B|---19h21bu21bd repeat loads--------------------------------
G|-----------------------------------------------------------
D|-----------------------------------------------------------
A|-----------------------------------------------------------
E|-----------------------------------------------------------#/19t2##/19t1#

Toque em 3 tempos:

#20t1##20t2#E|---------20------------------------------------------------
B|---21bu----------------------------------------------------
G|-----------------------------------------------------------
D|-----------------------------------------------------------
A|-----------------------------------------------------------
E|-----------------------------------------------------------#/20t2##/20t1#

Terminando , essa é a parte com mais feeling da musica:

#21t1##21t2#E|--21bu--21bu-------21bu-21bd-------------------------------
B|------------------------------18-20-18-20-18-18-18v--------
G|-----------------------------------------------------------
D|-----------------------------------------------------------
A|-----------------------------------------------------------
E|-----------------------------------------------------------#/21t2##/21t1#

#22t1##22t2#E|---------------21bu----------------------------------------
B|--20-18-18-18-------18-20--18-20-18-20-18-18v--------------
G|-----------------------------------------------------------
D|-----------------------------------------------------------
A|-----------------------------------------------------------
E|-----------------------------------------------------------#/22t2##/22t1#

#23t1##23t2#E|-----------------------------------------------------------
B|----18h20po18--18h20po18--18h20po18--18h20po18--18h20po18--
G|-----------------------------------------------------------
D|-----------------------------------------------------------
A|-----------------------------------------------------------
E|-----------------------------------------------------------#/23t2##/23t1#

#24t1##24t2#E|-----------------------------------------------------------
B|----18h20po18--18h20po18--18h20po18--18h20po18-------------
G|------------------------------------------------19v--------
D|-----------------------------------------------------------
A|-----------------------------------------------------------
E|-----------------------------------------------------------#/24t2##/24t1#
Composição: Josh Klinghoffer / Michal BalzaryColaboração e revisão: Augusto AlencarTiago