Love Of Your Life

Red Hot Chili Peppers

Tom: G
Intro/Verse

#1t1##1t2#E|-------3h5p3-----------3h5p3-----------3h5p3-----------5---|
B|-----3-------3-------3-------3-------3-------3---------6---|
G|---3-----------3---3-----------3---3-----------3-------5---|
D|-5---------------5---------------5---------------5---------|
A|-----------------------------------------------------------|
E|-----------------------------------------------------------|#/1t2##/1t1#

#2t1##2t2#E|-------6h8p6-----------6h8p6-----------6h8p6-----------5---|
B|-----6-------6-------6-------6-------6-------6---------6---|
G|---7-----------7---7-----------7---7-----------7-------5---|
D|-8---------------8---------------8---------------8---------|
A|-----------------------------------------------------------|
E|-----------------------------------------------------------|#/2t2##/2t1#

repeat till

#3t1##3t2#E|-------6h8p6-----------6h8p6-------------6-6-6-6---|
B|-----6-------6-------6-------6-----6-6-6-6-6-6-6---|
G|---7-----------7---7-----------7---7-7-7-7-7-7-7---|
D|-8---------------8-----------------8-8-8-8-8-8-8---|
A|---------------------------------------------------|
E|---------------------------------------------------|#/3t2##/3t1#

Chorus

#4t1##4t2#E|------------------------------10---10---10--|
B|-8-8-8--10---10---10---10-10--11---11---11--|
G|-8-8-8--10---10---10---10-10--12---12---12--|
D|-8-8-8--10---10---10---10-10--12---12---12--|
A|-6-6-6--8----8----8----8--8---10---10---10--|
E|-------------------------------------------|#/4t2##/4t1#

#5t1##5t2#E|-------------------8--^--8------6-^---6-----5-^-------|
B|-8-8-8--10---10----8--|--8------8-|---8-----7-|---7---|
G|-8-8-8--10---10----8--|--8------8-|---8-----5-|-------|
D|-8-8-8--10---10----10-|--10-----8-|---8-----7-|-------|
A|-6-6-6--8----8-----10-|--10-----6-|---6-----5-|-------|
E|-------------------8----------------------------------|#/5t2##/5t1#

#6t1##6t2#E|--3-3-3-3-3-3-3-3--|
B|--3-3-3-3-3-3-3-3--|
G|--3-3-3-3-3-3-3-3--|
D|--5-5-5-5-5-5-5-5--|
A|--5-5-5-5-5-5-5-5--|
E|--3-3-3-3-3-3-3-3--|#/6t2##/6t1#


#7t1#  Gtr.1
#7t2#E|-------------3h5p3-----------3h5p3-----------3h5p3--------------5----|
B|-----------3-------3-------3-------3-------3-------3------------6----|
G|---------3-----------3---3-----------3---3-----------3----------5----|
D|-------5---------------5---------------5---------------5-------------|
A|-10\-----------------------------------------------------------------|
E|---------------------------------------------------------------------|
 |#/7t2##/7t1#
#8t1# |Gtr.2
#8t2#E|------------3h5-3-------------------------3h5-3----------------------|
B|------------------6h8p6-------------------------6h8p6----------------|
G|------------------------7-5h7p5-----------------------7-5h7p5--------|
D|--------------------------------7-3h5-------------------------7-3h5--|
A|---------------------------------------------------------------------|
E|---------------------------------------------------------------------|#/8t2##/8t1#

Verse

#9t1##9t2#E|-------3h5p3-----------3h5p3-----------3h5p3-----------5---|
B|-----3-------3-------3-------3-------3-------3---------6---|
G|---3-----------3---3-----------3---3-----------3-------5---|
D|-5---------------5---------------5---------------5---------|
A|-----------------------------------------------------------|
E|-----------------------------------------------------------|#/9t2##/9t1#

#10t1##10t2#E|-------6h8p6-----------6h8p6-----------6h8p6-----------5---|
B|-----6-------6-------6-------6-------6-------6---------6---|
G|---7-----------7---7-----------7---7-----------7-------5---|
D|-8---------------8---------------8---------------8---------|
A|-----------------------------------------------------------|
E|-----------------------------------------------------------|#/10t2##/10t1#

repeat till

#11t1##11t2#E|-------6h8p6-----------6h8p6-------------6-6-6-6---|
B|-----6-------6-------6-------6-----6-6-6-6-6-6-6---|
G|---7-----------7---7-----------7---7-7-7-7-7-7-7---|
D|-8---------------8-----------------8-8-8-8-8-8-8---|
A|---------------------------------------------------|
E|---------------------------------------------------|#/11t2##/11t1#

Chorus

#12t1##12t2#E|------------------------------10---10---10--|
B|-8-8-8--10---10---10---10-10--11---11---11--|
G|-8-8-8--10---10---10---10-10--12---12---12--|
D|-8-8-8--10---10---10---10-10--12---12---12--|
A|-6-6-6--8----8----8----8--8---10---10---10--|
E|-------------------------------------------|#/12t2##/12t1#

#13t1##13t2#E|-------------------8--^--8------6-^---6-----5-^-------|
B|-8-8-8--10---10----8--|--8------8-|---8-----7-|---7---|
G|-8-8-8--10---10----8--|--8------8-|---8-----5-|-------|
D|-8-8-8--10---10----10-|--10-----8-|---8-----7-|-------|
A|-6-6-6--8----8-----10-|--10-----6-|---6-----5-|-------|
E|-------------------8----------------------------------|#/13t2##/13t1#

#14t1##14t2#E|--3-3-3-3-3-3-3-3--|
B|--3-3-3-3-3-3-3-3--|
G|--3-3-3-3-3-3-3-3--|
D|--5-5-5-5-5-5-5-5--|
A|--5-5-5-5-5-5-5-5--|
E|--3-3-3-3-3-3-3-3--|#/14t2##/14t1#

#15t1##15t2#E|------------------------------10---10---10--|
B|-8-8-8--10---10---10---10-10--11---11---11--|
G|-8-8-8--10---10---10---10-10--12---12---12--|
D|-8-8-8--10---10---10---10-10--12---12---12--|
A|-6-6-6--8----8----8----8--8---10---10---10--|
E|-------------------------------------------|#/15t2##/15t1#

#16t1##16t2#E|-------------------8--^--8------6-^---6-----5-^-------|
B|-8-8-8--10---10----8--|--8------8-|---8-----7-|---7---|
G|-8-8-8--10---10----8--|--8------8-|---8-----5-|-------|
D|-8-8-8--10---10----10-|--10-----8-|---8-----7-|-------|
A|-6-6-6--8----8-----10-|--10-----6-|---6-----5-|-------|
E|-------------------8----------------------------------|#/16t2##/16t1#

#17t1##17t2#E|--3-3-3-3-3-3-3-3--|
B|--3-3-3-3-3-3-3-3--|
G|--3-3-3-3-3-3-3-3--|
D|--5-5-5-5-5-5-5-5--|
A|--5-5-5-5-5-5-5-5--|
E|--3-3-3-3-3-3-3-3--|#/17t2##/17t1#

Solo: Will update with lead guitar

#18t1##18t2#E|--1-1-1--3-3-3-3-3-3-3-3--|--1-1-1--3-3-3-3-3-3-3--|
B|--1-1-1--3-3-3-3-3-3-3-3--|--1-1-1--3-3-3-3-3-3-3--|
G|--2-2-2--3-3-3-3-3-3-3-3--|--2-2-2--3-3-3-3-3-3-3--|
D|--3-3-3--5-5-5-5-5-5-5-5--|--3-3-3--5-5-5-5-5-5-5--|
A|--3-3-3--5-5-5-5-5-5-5-5--|--3-3-3--5-5-5-5-5-5-5--|
E|--1-1-1--3-3-3-3-3-3-3-3--|--1-1-1--3-3-3-3-3-3-3--|#/18t2##/18t1#


#19t1##19t2#E|--1-1-1--6-6-6-6-6-6-6-6--|--1-1-1--6-6-6-6-6-6-6--|
B|--1-1-1--6-6-6-6-6-6-6-6--|--1-1-1--6-6-6-6-6-6-6--|
G|--2-2-2--7-7-7-7-7-7-7-7--|--2-2-2--7-7-7-7-7-7-7--|
D|--3-3-3--8-8-8-8-8-8-8-8--|--3-3-3--8-8-8-8-8-8-8--|
A|--3-3-3--8-8-8-8-8-8-8-8--|--3-3-3--8-8-8-8-8-8-8--|
E|--1-1-1--6-6-6-6-6-6-6-6--|--1-1-1--6-6-6-6-6-6-6--|  Repeat#/19t2##/19t1#

Chorus till

Outro


#20t1##20t2#E|-------3------------3------------3-----------------------|
B|-----3---3--------3---3--------3---3-----------------4---|
G|---3-------3----3-------3----3-------3--------3----------|
D|-5------------5------------5----------------3------5-----|
A|----------------------------------------3h5------3-------|
E|---------------------------------------------------------|#/20t2##/20t1#

#21t1##21t2#E|-------3------------3------------3-----------------------|
B|-----3---3--------3---3--------3---3-----------------4---|
G|---3-------3----3-------3----3-------3--------3----------|
D|-5------------5------------5----------------3------5-----|
A|----------------------------------------3h5------3-------|
E|---------------------------------------------------------|#/21t2##/21t1#

#22t1##22t2#E|-------3------------3------------3-----------------------|
B|-----3---3--------3---3--------3---3-----------------4---|
G|---3-------3----3-------3----3-------3--------3----------|
D|-5------------5------------5----------------3------5-----|
A|----------------------------------------3h5------3-------|
E|---------------------------------------------------------|#/22t2##/22t1#

#23t1##23t2#E|-------3------------3------------3------------------------3--|
B|-----3---3--------3---3--------3---3-----------------4----3--|
G|---3-------3----3-------3----3-------3--------3-----------3--|
D|-5------------5------------5----------------3------5------5--|
A|----------------------------------------3h5------3-----------|
E|-------------------------------------------------------------|#/23t2##/23t1#
Composição: Colaboração e revisão: Paulo César