busca

Love Of Your Life

Red Hot Chili Peppers

Tom: F
Intro/Verse

E|-------3h5p3-----------3h5p3-----------3h5p3-----------5---|
B|-----3-------3-------3-------3-------3-------3---------6---|
G|---3-----------3---3-----------3---3-----------3-------5---|
D|-5---------------5---------------5---------------5---------|
A|-----------------------------------------------------------|
E|-----------------------------------------------------------|

E|-------6h8p6-----------6h8p6-----------6h8p6-----------5---|
B|-----6-------6-------6-------6-------6-------6---------6---|
G|---7-----------7---7-----------7---7-----------7-------5---|
D|-8---------------8---------------8---------------8---------|
A|-----------------------------------------------------------|
E|-----------------------------------------------------------|

repeat till

E|-------6h8p6-----------6h8p6-------------6-6-6-6---|
B|-----6-------6-------6-------6-----6-6-6-6-6-6-6---|
G|---7-----------7---7-----------7---7-7-7-7-7-7-7---|
D|-8---------------8-----------------8-8-8-8-8-8-8---|
A|---------------------------------------------------|
E|---------------------------------------------------|

Chorus

E|------------------------------10---10---10--|
B|-8-8-8--10---10---10---10-10--11---11---11--|
G|-8-8-8--10---10---10---10-10--12---12---12--|
D|-8-8-8--10---10---10---10-10--12---12---12--|
A|-6-6-6--8----8----8----8--8---10---10---10--|
E|-------------------------------------------|

E|-------------------8--^--8------6-^---6-----5-^-------|
B|-8-8-8--10---10----8--|--8------8-|---8-----7-|---7---|
G|-8-8-8--10---10----8--|--8------8-|---8-----5-|-------|
D|-8-8-8--10---10----10-|--10-----8-|---8-----7-|-------|
A|-6-6-6--8----8-----10-|--10-----6-|---6-----5-|-------|
E|-------------------8----------------------------------|

E|--3-3-3-3-3-3-3-3--|
B|--3-3-3-3-3-3-3-3--|
G|--3-3-3-3-3-3-3-3--|
D|--5-5-5-5-5-5-5-5--|
A|--5-5-5-5-5-5-5-5--|
E|--3-3-3-3-3-3-3-3--|


  Gtr.1
E|-------------3h5p3-----------3h5p3-----------3h5p3--------------5----|
B|-----------3-------3-------3-------3-------3-------3------------6----|
G|---------3-----------3---3-----------3---3-----------3----------5----|
D|-------5---------------5---------------5---------------5-------------|
A|-10\-----------------------------------------------------------------|
E|---------------------------------------------------------------------|
 |
 |Gtr.2
E|------------3h5-3-------------------------3h5-3----------------------|
B|------------------6h8p6-------------------------6h8p6----------------|
G|------------------------7-5h7p5-----------------------7-5h7p5--------|
D|--------------------------------7-3h5-------------------------7-3h5--|
A|---------------------------------------------------------------------|
E|---------------------------------------------------------------------|

Verse

E|-------3h5p3-----------3h5p3-----------3h5p3-----------5---|
B|-----3-------3-------3-------3-------3-------3---------6---|
G|---3-----------3---3-----------3---3-----------3-------5---|
D|-5---------------5---------------5---------------5---------|
A|-----------------------------------------------------------|
E|-----------------------------------------------------------|

E|-------6h8p6-----------6h8p6-----------6h8p6-----------5---|
B|-----6-------6-------6-------6-------6-------6---------6---|
G|---7-----------7---7-----------7---7-----------7-------5---|
D|-8---------------8---------------8---------------8---------|
A|-----------------------------------------------------------|
E|-----------------------------------------------------------|

repeat till

E|-------6h8p6-----------6h8p6-------------6-6-6-6---|
B|-----6-------6-------6-------6-----6-6-6-6-6-6-6---|
G|---7-----------7---7-----------7---7-7-7-7-7-7-7---|
D|-8---------------8-----------------8-8-8-8-8-8-8---|
A|---------------------------------------------------|
E|---------------------------------------------------|

Chorus

E|------------------------------10---10---10--|
B|-8-8-8--10---10---10---10-10--11---11---11--|
G|-8-8-8--10---10---10---10-10--12---12---12--|
D|-8-8-8--10---10---10---10-10--12---12---12--|
A|-6-6-6--8----8----8----8--8---10---10---10--|
E|-------------------------------------------|

E|-------------------8--^--8------6-^---6-----5-^-------|
B|-8-8-8--10---10----8--|--8------8-|---8-----7-|---7---|
G|-8-8-8--10---10----8--|--8------8-|---8-----5-|-------|
D|-8-8-8--10---10----10-|--10-----8-|---8-----7-|-------|
A|-6-6-6--8----8-----10-|--10-----6-|---6-----5-|-------|
E|-------------------8----------------------------------|

E|--3-3-3-3-3-3-3-3--|
B|--3-3-3-3-3-3-3-3--|
G|--3-3-3-3-3-3-3-3--|
D|--5-5-5-5-5-5-5-5--|
A|--5-5-5-5-5-5-5-5--|
E|--3-3-3-3-3-3-3-3--|

E|------------------------------10---10---10--|
B|-8-8-8--10---10---10---10-10--11---11---11--|
G|-8-8-8--10---10---10---10-10--12---12---12--|
D|-8-8-8--10---10---10---10-10--12---12---12--|
A|-6-6-6--8----8----8----8--8---10---10---10--|
E|-------------------------------------------|

E|-------------------8--^--8------6-^---6-----5-^-------|
B|-8-8-8--10---10----8--|--8------8-|---8-----7-|---7---|
G|-8-8-8--10---10----8--|--8------8-|---8-----5-|-------|
D|-8-8-8--10---10----10-|--10-----8-|---8-----7-|-------|
A|-6-6-6--8----8-----10-|--10-----6-|---6-----5-|-------|
E|-------------------8----------------------------------|

E|--3-3-3-3-3-3-3-3--|
B|--3-3-3-3-3-3-3-3--|
G|--3-3-3-3-3-3-3-3--|
D|--5-5-5-5-5-5-5-5--|
A|--5-5-5-5-5-5-5-5--|
E|--3-3-3-3-3-3-3-3--|

Solo: Will update with lead guitar

E|--1-1-1--3-3-3-3-3-3-3-3--|--1-1-1--3-3-3-3-3-3-3--|
B|--1-1-1--3-3-3-3-3-3-3-3--|--1-1-1--3-3-3-3-3-3-3--|
G|--2-2-2--3-3-3-3-3-3-3-3--|--2-2-2--3-3-3-3-3-3-3--|
D|--3-3-3--5-5-5-5-5-5-5-5--|--3-3-3--5-5-5-5-5-5-5--|
A|--3-3-3--5-5-5-5-5-5-5-5--|--3-3-3--5-5-5-5-5-5-5--|
E|--1-1-1--3-3-3-3-3-3-3-3--|--1-1-1--3-3-3-3-3-3-3--|


E|--1-1-1--6-6-6-6-6-6-6-6--|--1-1-1--6-6-6-6-6-6-6--|
B|--1-1-1--6-6-6-6-6-6-6-6--|--1-1-1--6-6-6-6-6-6-6--|
G|--2-2-2--7-7-7-7-7-7-7-7--|--2-2-2--7-7-7-7-7-7-7--|
D|--3-3-3--8-8-8-8-8-8-8-8--|--3-3-3--8-8-8-8-8-8-8--|
A|--3-3-3--8-8-8-8-8-8-8-8--|--3-3-3--8-8-8-8-8-8-8--|
E|--1-1-1--6-6-6-6-6-6-6-6--|--1-1-1--6-6-6-6-6-6-6--|  Repeat

Chorus till

Outro


E|-------3------------3------------3-----------------------|
B|-----3---3--------3---3--------3---3-----------------4---|
G|---3-------3----3-------3----3-------3--------3----------|
D|-5------------5------------5----------------3------5-----|
A|----------------------------------------3h5------3-------|
E|---------------------------------------------------------|

E|-------3------------3------------3-----------------------|
B|-----3---3--------3---3--------3---3-----------------4---|
G|---3-------3----3-------3----3-------3--------3----------|
D|-5------------5------------5----------------3------5-----|
A|----------------------------------------3h5------3-------|
E|---------------------------------------------------------|

E|-------3------------3------------3-----------------------|
B|-----3---3--------3---3--------3---3-----------------4---|
G|---3-------3----3-------3----3-------3--------3----------|
D|-5------------5------------5----------------3------5-----|
A|----------------------------------------3h5------3-------|
E|---------------------------------------------------------|

E|-------3------------3------------3------------------------3--|
B|-----3---3--------3---3--------3---3-----------------4----3--|
G|---3-------3----3-------3----3-------3--------3-----------3--|
D|-5------------5------------5----------------3------5------5--|
A|----------------------------------------3h5------3-----------|
E|-------------------------------------------------------------|

Clipes