busca

Parallel Universe

Red Hot Chili Peppers

Tom: C
Intro:

E|-------------------------------------------------------------------------------------------------------------
B|-------------------------------------------------------------------------------------------------------------
G|-------------------------------------------------------------------------------------------------------------
D|-13-13-13-13-13-13-13-13-13-13-13-13-13-13-13-13-13-13--12-12-12-12-12-12-12-12-12-12-12-12-12-12-12-12-12-12
A|-------------------------------------------------------------------------------------------------------------
E|-------------------------------------------------------------------------------------------------------------

E|-------------------------------------------------------------------------------------------------------------
B|-------------------------------------------------------------------------------------------------------------
G|-10-10-10-10-10-10-10-10-10--12-12-12-12-12-12-12-12-12-12---------------------------------------------------
D|------------------------------------------------------------10-10-10-10-10-10-10-10-10-10--9-9-9-9-9-9-9-9-9-
A|-------------------------------------------------------------------------------------------------------------
E|-------------------------------------------------------------------------------------------------------------

Verso:

              'Deep inside of a                    parallel universe'
E|-------------------------------------------------------------------------------------------------------------
B|-------------------------------------------------------------------------------------------------------------
G|-------------------------------------------------------------------------------------------------------------
D|-13-13-13-13-13-13-13-13-13-13-13-13-13-13-13-13-13-13--12-12-12-12-12-12-12-12-12-12-12-12-12-12-12-12-12-12
A|-------------------------------------------------------------------------------------------------------------
E|-------------------------------------------------------------------------------------------------------------
   'Its getting harder and     harder,                          to tell                    what came first'
E|-------------------------------------------------------------------------------------------------------------
B|-------------------------------------------------------------------------------------------------------------
G|-10-10-10-10-10-10-10-10-10--12-12-12-12-12-12-12-12-12-12---------------------------------7-----------------
D|------------------------------------------------------------10-10-10-10-10-10-10-10-10-10----9-10-9-10-------
A|-------------------------------------------------------------------------------------------------------------
E|-------------------------------------------------------------------------------------------------------------

   'Under water where thoughts                   can breathe                                   easily'
E|-------------------------------------------------------------------------------------------------------------
B|-------------------------------------------------------------------------------------------------------------
G|-------------------------------------12--10----------------------------------10------------------------------
D|-13-13-13-13-13-13-13-13-13-13-13-13---------13--12-12-12-12-12-12-12-12-12------13--12-12-12-12-12-12-12-12-
A|-------------------------------------------------------------------------------------------------------------
E|-------------------------------------------------------------------------------------------------------------
  'Far away you were made         in a sea              just like me'
E|-------------------------------------------------------------------------------------------------------------
B|-------------------------------------------------------------------------------------------------------------
G|-------------------------------------------------------------------------------------------------------------
D|--------------------------------10-10-10-10----------17b19-b19-b19-------------------------------------------
A|-8-8-8-8-8---------10-10-10-10-------------------------------------------------------------------------------
E|-------------------------------------------------------------------------------------------------------------

(Na parte do bend, entra o efeito e começa o refrão com acordes que pode ser feito num ritmo)

   C5         G     G#         Bb4
Christ I'm a sidewinder I'm a

G
California king

   C5         G     G#         Bb4
I swear it's everywhere

G
It's everything

(Depois desta parte volta para o riff sem efeito)

  'Staring straight up into             the sky,                                   0h my my'
E|-------------------------------------------------------------------------------------------------------------
B|-------------------------------------------------------------------------------------------------------------
G|-----------------------------------12--10----------------------------------10--------------------------------
D|-13-13-13-13-13-13-13-13-13-13-13----------13--12-12-12-12-12-12-12-12-12------13--12-12-12-12-12-12-12-12---
A|-------------------------------------------------------------------------------------------------------------
E|-------------------------------------------------------------------------------------------------------------

   'A solar system that fits,        in your eye microcosm'
E|-------------------------------------------------------------------------------------------------------------
B|-------------------------------------------------------------------------------------------------------------
G|---------------------------------------------7---------------------------------------------------------------
D|--------------------------------10-10-10-10-----9-10-9-10----------------------------------------------------
A|-8-8-8-8-8---------10-10-10-10-------------------------------------------------------------------------------
E|-------------------------------------------------------------------------------------------------------------

  'You could die but your                never dead,                                 spider web'
E|-------------------------------------------------------------------------------------------------------------
B|-------------------------------------------------------------------------------------------------------------
G|-----------------------------------12--10----------------------------------10--------------------------------
D|-13-13-13-13-13-13-13-13-13-13-13----------13--12-12-12-12-12-12-12-12-12------13--12-12-12-12-12-12-12-12---
A|-------------------------------------------------------------------------------------------------------------
E|-------------------------------------------------------------------------------------------------------------

  'Take a look at       the stars                       in your head                     fields of space kid'
E|-------------------------------------------------------------------------------------------------------------
B|-------------------------------------------------------------------------------------------------------------
G|-----------------------------12-12-12-12-12-12-12-12-12-12---------------------------------------------------
D|-10-10-10-10-10-10-10-10-10----------------------------------------------------------------17b19-b19-b19-----
A|------------------------------------------------------------10-10-10-10-10-10-10-10-10-10--------------------
E|-------------------------------------------------------------------------------------------------------------

(Entra novamento o refrão com efeito) 2x

   C5         G     G#         Bb4
Christ I'm a sidewinder I'm a

G
California king

   C5         G     G#         Bb4
I swear it's everywhere

G
It's everything


   C5         G     G#         Bb4
Christ I'm a sidewinder I'm a

G
California king

   C5         G     G#         Bb4
I swear it's everywhere

G
It's everything


(O segundo refrão termina com isso)

E|--------------------------------------------------------------
B|--------------------------------------------------------------
G|--------------------------------------------------------------
D|---12^14--10~-------------------------------------------------
A|--------------------------------------------------------------
E|--------------------------------------------------------------

(Depois começa um novo riff)


E|-------------------------------------------------------------------------------------------------------------
B|-3-3-3-3-3------------3-3-3-3-3----------------------------3-3-3-3-3-----------------------------------------
G|------------2-2------------------2-2-----5^7-5^7-5^7-5^7--------------2-2-----5^7-5^7-5^7-5^7----------------
D|-----------------5-5------------------5------------------------------------5---------------------------------
A|-------------------------------------------------------------------------------------------------------------
E|-------------------------------------------------------------------------------------------------------------

E|--------------------------------------------------------------
B|-3-3-3-3-3----------------------------------------------------
G|------------2-2-----------------------------------------------
D|----------------5-5-------------------------------------------
A|--------------------------------------------------------------
E|--------------------------------------------------------------

(Depois volta para o outro riff)



  'Psychic changes are born           in your heart                     entertain'
E|-------------------------------------------------------------------------------------------------------------
B|-------------------------------------------------------------------------------------------------------------
G|-----------------------------------12-12-12-12-12--------------10--------------------------------------------
D|-13-13-13-13-13-13-13-13-13-13-13-----------------12-12-12-12-------13--12-12-12-12-12-12-12-12--------------
A|-------------------------------------------------------------------------------------------------------------
E|-------------------------------------------------------------------------------------------------------------

  'A nervous breakthrough that makes us the same, bless your heart girl'
E|-------------------------------------------------------------------------------------------------------------
B|-------------------------------------------------------------------------------------------------------------
G|---------------------------------------------7---------------------------------------------------------------
D|--------------------------------10-10-10-10-----9-10-9-10----------------------------------------------------
A|-8-8-8-8-8---------10-10-10-10-------------------------------------------------------------------------------
E|-------------------------------------------------------------------------------------------------------------

  'Kill the pressure it's                raining on,                                salty cheeks'
E|-------------------------------------------------------------------------------------------------------------
B|-------------------------------------------------------------------------------------------------------------
G|-----------------------------------12--10----------------------------------10--------------------------------
D|-13-13-13-13-13-13-13-13-13-13-13----------13--12-12-12-12-12-12-12-12-12------13--12-12-12-12-12-12-12-12---
A|-------------------------------------------------------------------------------------------------------------
E|-------------------------------------------------------------------------------------------------------------

  'When you hear                      the beloved song,                            I am with you'
E|-------------------------------------------------------------------------------------------------------------
B|-------------------------------------------------------------------------------------------------------------
G|-----------------------------12-12-12-12-12-12-12-12-12-12---------------------------------------------------
D|-10-10-10-10-10-10-10-10-10----------------------------------------------------------------17b19-b19-b19-----
A|------------------------------------------------------------10-10-10-10-10-10-10-10-10-10--------------------
E|-------------------------------------------------------------------------------------------------------------

Refrão:

   C5         G     G#         Bb4
Christ I'm a sidewinder I'm a
G
California king
   C5         G     G#         Bb4
I swear it's everywhere
G
It's everything

Clipes