busca

Runaway

Red Hot Chili Peppers

Tom: C
(verso)
      Em
E |-(12)---------(12)--------(12)--------(12)--------(12)-------------|
B |-----(12)---------(12)--------(12)--------(12)--------(12)---------|
G |---------(12)---------(12)--------(12)--------(12)--------(12)-----|
D |-------------------------------------------------------------------|
A |-------------------------------------------------------------------|
E |-------------------------------------------------------------------|

( ) palm mute (ou harmônicos, você escolhe ;))

     G
E |-10----10----10----10----10------|
B |---12----12----12----12----12----|
G |-----12----12----12----12----12--|
D |---------------------------------|
A |---------------------------------|
E |---------------------------------|

(refrão)
C             D                G            C
   don't be late, i hear it's    gonna be so very great and
F            C                     Dm
   out the door i'm walking like a runaway
F            G            C                 F
   all the reasons that i count up you can't haul away and
F            C                        Dm
   more and more i'm wanderin' like a runawy

(verso)
(chorus)

(ponte)
Em            Am
    i think i    know
                  G
Everything you're gonna say
Em         Am
I think you    know
            G
Why i wanna runaway

(chorus)

(solos) (1)
E |---------------------------------------|
B |-/12--15/12--19/17---12/15/12---10/----|
G |---------------------------------------|
D |---------------------------------------|
A |---------------------------------------|
E |---------------------------------------|

(2)
E |-/19/15--14/15/14/12-/-7---/12/10--5/3-/-7--10/7--14/12--10/12-19-|
B |------------------------------------------------------------------|
G |------------------------------------------------------------------|
D |------------------------------------------------------------------|
A |------------------------------------------------------------------|
E |------------------------------------------------------------------|

E |-19/22-22bu-re-22-/----|
B |-----------------------|
G |-----------------------|
D |-----------------------|
A |-----------------------|
E |-----------------------|

Clipes