Am
123
X02210
C
123
X32010
D
123
XX0232
Dm
123
XX0231
Em
12
022000
F
234
133211
G
123
320003
Tom: G
#1t1#(verso)
      Em
#1t2#E |-(12)---------(12)--------(12)--------(12)--------(12)-------------|
B |-----(12)---------(12)--------(12)--------(12)--------(12)---------|
G |---------(12)---------(12)--------(12)--------(12)--------(12)-----|
D |-------------------------------------------------------------------|
A |-------------------------------------------------------------------|
E |-------------------------------------------------------------------|#/1t2##/1t1#

( ) palm mute (ou harmônicos, você escolhe ;))

#2t1#     G
#2t2#E |-10----10----10----10----10------|
B |---12----12----12----12----12----|
G |-----12----12----12----12----12--|
D |---------------------------------|
A |---------------------------------|
E |---------------------------------|#/2t2##/2t1#

(refrão)
C             D                G            C
   don't be late, i hear it's    gonna be so very great and
F            C                     Dm
   out the door i'm walking like a runaway
F            G            C                 F
   all the reasons that i count up you can't haul away and
F            C                        Dm
   more and more i'm wanderin' like a runawy

(verso)
(chorus)

(ponte)
Em            Am
    i think i    know
                  G
Everything you're gonna say
Em         Am
I think you    know
            G
Why i wanna runaway

(chorus)

#3t1#(solos) (1)
#3t2#E |---------------------------------------|
B |-/12--15/12--19/17---12/15/12---10/----|
G |---------------------------------------|
D |---------------------------------------|
A |---------------------------------------|
E |---------------------------------------|#/3t2##/3t1#

#4t1#(2)
#4t2#E |-/19/15--14/15/14/12-/-7---/12/10--5/3-/-7--10/7--14/12--10/12-19-|
B |------------------------------------------------------------------|
G |------------------------------------------------------------------|
D |------------------------------------------------------------------|
A |------------------------------------------------------------------|
E |------------------------------------------------------------------|#/4t2##/4t1#

#5t1##5t2#E |-19/22-22bu-re-22-/----|
B |-----------------------|
G |-----------------------|
D |-----------------------|
A |-----------------------|
E |-----------------------|#/5t2##/5t1#
Composição: John FrucianteColaboração e revisão: Roger Oliveira