busca

Sex Rap

Red Hot Chili Peppers

Tom: G
GUITAR INTRO / VERSE     
e|----------------------------|----------------------------|
b|----------------------------|----------------------------|
g|----------------------------|----------------------------|
d|----------------------------|----------------------------|
a|-------------------------3--|-------------------------3--|
E|--5-5--5-3-----5-5--5-5-----|--5-5--5-3-----5-5--5-5-----|

---------------------------|--------------------------|
---------------------------|--------------x--7--x--6--|
---------------------------|--------------x--6--x--5--|
---------------------------|--------------x--5--x--4--|
------------------------3--|--------------x--6--x--5--|
--5-5--5-3----5-5--5-5-----|--5-5--5-3----------------| 


CHORUS
e|-------------------------------------------|
b|----8--x-x--8--x-x--8-8--8--x-x--8----8----|
g|----7--x-x--7--x-x--7-7--7--x-x--7----7----|
d|----6--x-x--6--x-x--6-6--6--x-x--6----6----|
a|----7--x-x--7--x-x--7-7--7--x-x--7----7----|
E|-------------------------------------------|





OUTRO
e|---------------------------|---------------------------|
b|---------------------------|---------------------------|
g|---------------------------|---------------------------|
d|---------------------------|---------------------------|
a|------------------------3--|------------------------3--|
E|--5-5--5-3----5-5--5-5-----|--5-5--5-3----5-5--5-5-----|

---------------------------|--------------------------|
---------------------------|--------------x--7--x--6--|
---------------------------|--------------x--6--x--5--|
---------------------------|--------------x--5--x--4--|
------------------------3--|--------------x--6--x--5--|
--5-5--5-3----5-5--5-5-----|--5-5--5-3----------------|

---------------------------|---------------------------|
---------------------------|---------------------------|
---------------------------|---------------------------|
---------------------------|---------------------------|
------------------------3--|------------------------3--|
--5-5--5-3----5-5--5-5-----|--5-5--5-3----5-5--5-5-----|

Clipes