busca

Sick Love

Red Hot Chili Peppers

Tom: C
[Intro]

E|---------------------------------7-----6/7--7------7-7-10-7-7-7----| )X2
B|---------------------------------7-----6/7--7------8-8--8-8-8-8----|
G|------5-----7---7h9p7-----7------7-----6/7--7------9-9--9-9-9-9----|
D|------5-----7----------9-------------------------------------------|
A|-5/7----7/9--------------------------------------------------------|
E|-------------------------------------------------------------------| 
                             

E|---------------------------------------7--7--7---------------------|
B|-----------------------------------------8--8--8-------------------|
G|------5-----7---7h9p7-----7----------------9--9-9------------------|
D|------5-----7----------9-------------------------------------------| 
A|-5/7----7/9--------------------------------------------------------|
E|--------------------------------0----------------------------------| 

[Verse]

E|------------------------------7-7-7-7-7-7-7-7|
B|----5-----3-3h5p3--3--7-7^-7~-5-5-5-5-5-5-5-5|
G|----5-----4-4----4----7-7^-7~-5-5-5-5-5-5-5-5|
D|2/4---2/4------------------------------------|
A|---------------------------------------------|
E|---------------------------------------------|

E|-----------------------------7---7--|
B|----5-----3-3h5p3h5-----------8---8-|
G|----5-----4-4------------------7----|
D|2/4---2/4---------------------------|
A|------------------------------------|
E|-----------------------0-x----------|


E|------------------------------7-7-7-7-7-7-7-7|
B|----5-----3-3h5p3--3--7-7^-7~-5-5-5-5-5-5-5-5|
G|----5-----4-4----4----7-7^-7~-5-5-5-5-5-5-5-5|
D|2/4---2/4------------------------------------|
A|---------------------------------------------|
E|---------------------------------------------|

E|-----------------------------7---7--|
B|----5-----3-3h5p3h5-----------8---8-|
G|----5-----4-4------------------7---9|
D|2/4---2/4---------------------------|
A|------------------------------------|
E|-----------------------0-x----------|


[Chorus]

E|---7-7-7-7-5-5-------------------------------------------7--7--7-|
B|----------------------8-10-10-12-8\7-8--------7/8---------8--8--8|
G|9~~-------------7~~7-------------------9-9/11--------------9--9--|
D|-----------------------------------------------------------------|
A|-----------------------------------------------------------------|
E|----------------------------------------------------0-x----------|

[Verse]

E|------------------------------7-7-7-7-7-7-7-7|
B|----5-----3-3h5p3--3--7-7^-7~-5-5-5-5-5-5-5-5|
G|----5-----4-4----4----7-7^-7~-5-5-5-5-5-5-5-5|
D|2/4---2/4------------------------------------|
A|---------------------------------------------|
E|---------------------------------------------|

E|-----------------------------7---7--|
B|----5-----3-3h5p3h5-----------8-----|
G|----5-----4-4------------------7----|
D|2/4---2/4---------------------------|
A|------------------------------------|
E|-----------------------0-x----------|

[Chorus 2: Rhythm]

E|8--8--x--8--8--10-10-x--7-7--x--7-7-7-7--x--7-7--x--7-7-7-7--x---------x-------------|
B|8--8--x--8--8--8--8--x--7-7--x--7-7-7-7--x--8-8--x--8-8-8-8--x--12-12--x--12-12-12-12|
G|9--9--x--9--9--9--9--x--7-7--x--7-7-7-7--x--9-9--x--9-9-9-9--x--12-12--x--12-12-12-12|
D|10-10-x--10-10-10-10-x--9-9--x--9-9-9-9--x--9-9--x--9-9-9-9--x--12-12--x--12-12-12-12|
A|------x--------------x-------x-----------x-------x-----------x--10-10--x--10-10-10-10|
E|------x--------------x-------x-----------x-------x-----------x---------x-------------|


E|5--x--5-5-5--x-------x---------x--7-7-7-7-7-7-10-10-10-10|
B|5--x--5-5-5--x--7-7--x-7-7-7-7-x--8-8-8-8-8-8-8--8--8--8-|
G|5--x--5-5-5--x--7-7--x-7-7-7-7-x--9-9-9-9-9-9-9--9--9--9-|
D|7--x--7-7-7--x--7-7--x-7-7-7-7-x--9-9-9-9-9-9-9--9--9--9-|
A|7--x--7-7-7--x--5-5--x-5-5-5-5-x-------------------------|
E|-------------x-------x---------x-------------------------|


E|8--8--x--8--8--10-10-x--7-7--x--7-7-7-7--x--7-7--x--7-7-7-7--x---------x-------------|
B|8--8--x--8--8--8--8--x--7-7--x--7-7-7-7--x--8-8--x--8-8-8-8--x--12-12--x--12-12-12-12|
G|9--9--x--9--9--9--9--x--7-7--x--7-7-7-7--x--9-9--x--9-9-9-9--x--12-12--x--12-12-12-12|
D|10-10-x--10-10-10-10-x--9-9--x--9-9-9-9--x--9-9--x--9-9-9-9--x--12-12--x--12-12-12-12|
A|------x--------------x-------x-----------x-------x-----------x--10-10--x--10-10-10-10|
E|------x--------------x-------x-----------x-------x-----------x---------x-------------|

E|5--x--5-5-5--x-------x---------x--7|
B|5--x--5-5-5--x--7-7--x-7-7-7-7-x--8|
G|5--x--5-5-5--x--7-7--x-7-7-7-7-x--9|
D|7--x--7-7-7--x--7-7--x-7-7-7-7-x--9|
A|7--x--7-7-7--x--5-5--x-5-5-5-5-x---|
E|-------------x-------x---------x---|

[Verse]

E|------------------------------7-7-7-7-7-7-7-7|
B|----5-----3-3h5p3--3--7-7^-7~-5-5-5-5-5-5-5-5|
G|----5-----4-4----4----7-7^-7~-5-5-5-5-5-5-5-5|
D|2/4---2/4------------------------------------|
A|---------------------------------------------|
E|---------------------------------------------|

E|-----------------------------7---7--7-|
B|----5-----3-3h5p3h5-----------8---8---|
G|----5-----4-4------------------7------|
D|2/4---2/4-----------------------------|
A|--------------------------------------|
E|-----------------------0-x------------|

E|------------------------------7-7-7-7-7-7-7-7|
B|----5-----3-3h5p3--3--7-7^-7~-5-5-5-5-5-5-5-5|
G|----5-----4-4----4----7-7^-7~-5-5-5-5-5-5-5-5|
D|2/4---2/4------------------------------------|
A|---------------------------------------------|
E|---------------------------------------------|

E|-----------------------------7---7--|
B|----5-----3-3h5p3h5-----------8---8-|
G|----5-----4-4------------------7----|
D|2/4---2/4---------------------------|
A|------------------------------------|
E|-----------------------0-x----------|


[Chorus]

E|---7-7-7-7-5-5-------------------------------------------7--7--7-|
B|----------------------8-10-10-12-8\7-8--------7/8---------8--8--8|
G|9~~-------------7~~7-------------------9-9/11--------------9--9--|
D|-----------------------------------------------------------------|
A|-----------------------------------------------------------------|
E|----------------------------------------------------0-x----------|



Chorus 2: Rhythm]

E|8--8--x--8--8--10-10-x--7-7--x--7-7-7-7--x--7-7--x--7-7-7-7--x---------x-------------|
B|8--8--x--8--8--8--8--x--7-7--x--7-7-7-7--x--8-8--x--8-8-8-8--x--12-12--x--12-12-12-12|
G|9--9--x--9--9--9--9--x--7-7--x--7-7-7-7--x--9-9--x--9-9-9-9--x--12-12--x--12-12-12-12|
D|10-10-x--10-10-10-10-x--9-9--x--9-9-9-9--x--9-9--x--9-9-9-9--x--12-12--x--12-12-12-12|
A|------x--------------x-------x-----------x-------x-----------x--10-10--x--10-10-10-10|
E|------x--------------x-------x-----------x-------x-----------x---------x-------------|


E|5--x--5-5-5--x-------x---------x--7-7-7-7-7-7-10-10-10-10|
B|5--x--5-5-5--x--7-7--x-7-7-7-7-x--8-8-8-8-8-8-8--8--8--8-|
G|5--x--5-5-5--x--7-7--x-7-7-7-7-x--9-9-9-9-9-9-9--9--9--9-|
D|7--x--7-7-7--x--7-7--x-7-7-7-7-x--9-9-9-9-9-9-9--9--9--9-|
A|7--x--7-7-7--x--5-5--x-5-5-5-5-x-------------------------|
E|-------------x-------x---------x-------------------------|


E|8--8--x--8--8--10-10-x--7-7--x--7-7-7-7--x--7-7--x--7-7-7-7--x---------x-------------|
B|8--8--x--8--8--8--8--x--7-7--x--7-7-7-7--x--8-8--x--8-8-8-8--x--12-12--x--12-12-12-12|
G|9--9--x--9--9--9--9--x--7-7--x--7-7-7-7--x--9-9--x--9-9-9-9--x--12-12--x--12-12-12-12|
D|10-10-x--10-10-10-10-x--9-9--x--9-9-9-9--x--9-9--x--9-9-9-9--x--12-12--x--12-12-12-12|
A|------x--------------x-------x-----------x-------x-----------x--10-10--x--10-10-10-10|
E|------x--------------x-------x-----------x-------x-----------x---------x-------------|

E|5--x--5-5-5--x-------x---------x--7|
B|5--x--5-5-5--x--7-7--x-7-7-7-7-x--8|
G|5--x--5-5-5--x--7-7--x-7-7-7-7-x--9|
D|7--x--7-7-7--x--7-7--x-7-7-7-7-x--9|
A|7--x--7-7-7--x--5-5--x-5-5-5-5-x---|
E|-------------x-------x---------x---|

[Solo]
                                                                    Octaver pedal
E|---------------------------------------------------------------------------------|
B|------11^--11^(11)----9~~~-7-7^----------------------------------------5h7p5-----|
G|12\\9--------------12-----------7-7-9--7^----------------------------------------|
D|------------------------------------------9-7-7^-5\4-4\2-2\0-2~~--2h4p2-----2h4p2|
A|---------------------------------------------------------------------------------|
E|---------------------------------------------------------------------------------|

E|----------------------------------------------------------------------------------------|
B|5-5-5^--3-3-3^----------------------------------------------------------------8--7/17~~~|
G|------4-------4-------------------------------------------------------------------------|
D|----------------5-/9-9-------------5^----5h7--5^-5^-5-7-5-4-7-5h7p5\4h5--7-4h5--5-------|
A|-----------------------9^\5/7-7^------5h7---7-------------------------------------------|
E|----------------------------------------------------------------------------------------|

[Chorus 2: Rhythm]

E|8--8--x--8--8--10-10-x--7-7--x--7-7-7-7--x--7-7--x--7-7-7-7--x---------x-------------|
B|8--8--x--8--8--8--8--x--7-7--x--7-7-7-7--x--8-8--x--8-8-8-8--x--12-12--x--12-12-12-12|
G|9--9--x--9--9--9--9--x--7-7--x--7-7-7-7--x--9-9--x--9-9-9-9--x--12-12--x--12-12-12-12|
D|10-10-x--10-10-10-10-x--9-9--x--9-9-9-9--x--9-9--x--9-9-9-9--x--12-12--x--12-12-12-12|
A|------x--------------x-------x-----------x-------x-----------x--10-10--x--10-10-10-10|
E|------x--------------x-------x-----------x-------x-----------x---------x-------------|


E|5--x--5-5-5--x-------x---------x--7-7-7-7-7-7-10-10-10-10|
B|5--x--5-5-5--x--7-7--x-7-7-7-7-x--8-8-8-8-8-8-8--8--8--8-|
G|5--x--5-5-5--x--7-7--x-7-7-7-7-x--9-9-9-9-9-9-9--9--9--9-|
D|7--x--7-7-7--x--7-7--x-7-7-7-7-x--9-9-9-9-9-9-9--9--9--9-|
A|7--x--7-7-7--x--5-5--x-5-5-5-5-x-------------------------|
E|-------------x-------x---------x-------------------------|


E|8--8--x--8--8--10-10-x--7-7--x--7-7-7-7--x--7-7--x--7-7-7-7--x---------x-------------|
B|8--8--x--8--8--8--8--x--7-7--x--7-7-7-7--x--8-8--x--8-8-8-8--x--12-12--x--12-12-12-12|
G|9--9--x--9--9--9--9--x--7-7--x--7-7-7-7--x--9-9--x--9-9-9-9--x--12-12--x--12-12-12-12|
D|10-10-x--10-10-10-10-x--9-9--x--9-9-9-9--x--9-9--x--9-9-9-9--x--12-12--x--12-12-12-12|
A|------x--------------x-------x-----------x-------x-----------x--10-10--x--10-10-10-10|
E|------x--------------x-------x-----------x-------x-----------x---------x-------------|

E|5--x--5-5-5--x-------x---------x--7|
B|5--x--5-5-5--x--7-7--x-7-7-7-7-x--8|
G|5--x--5-5-5--x--7-7--x-7-7-7-7-x--9|
D|7--x--7-7-7--x--7-7--x-7-7-7-7-x--9|
A|7--x--7-7-7--x--5-5--x-5-5-5-5-x---|
E|-------------x-------x---------x---|

Clipes

Cifra Club Pro

Aproveite o Cifra Club com benefícios exclusivos e sem anúncios
7 dias grátis
Cifra Club Pro
Aproveite o Cifra Club com benefícios exclusivos e sem anúncios
7 dias grátis