busca

Stadium Arcadium

Red Hot Chili Peppers

Tom: A
Intro:
     F#m              A               F#m              A      E
E|--------------------------------|----------------|-0------0--|
B|------------------------2----2--|----------------|-2------0--|
G|-------2-----2--------2----2----|-------2-----2--|-2------1--|
D|-----4-----4--------2----2------|-----4-----4----|-2------2--|
A|---4-----4--------0-------------|---4-----4------|-0------2--|
E|-2------------------------------|-2--------------|--------0--|

Parte 1:

 F#m                                  A
  Bells around St. Petersburg / When I saw you
E|--------------------------------------------------------|
B|-------------------------------------------2----2-------|
G|-------2---------2-----------------------2----2---------|
D|-----4---------4-----------------------2----2-----------|
A|---4---------4-----------------------0------------------|
E|-2------------------------------------------------------|
 F#m                                 A               E
 I hope I get what you deserve / And this is where I find
E|-----------------------------------0---------------0----|
B|-----------------------------------2---------------0----|
G|-------2---------2-----------------2---------------1----|
D|-----4---------4-------------------2---------------2----|
A|---4---------4---------------------0---------------2----|
E|-2-------------------------------------------------0----|
  F#m                                         A
  Smoke surrounds your perfect face / And I'm falling
E|----------------------------------------------------------|  |---------|
B|--------------------------------------------------2----2--|  |-2h3-2---|
G|-------2----------2-----------------------------2----2----|  |-------2-|
D|-----4----------4-----------------------------2----2------|  |---------|
A|---4----------4-----------------------------0-------------|  |---------|
E|-2--------------------------------------------------------|  |---------|
   F#m                                 A               E
   Pushin a broom out into space / And this is where I find a way
E|-------------------------------------0---------------0-0-0-0-0-0-0-|
B|-------------------------------------2---------------0-0-0-0-0-0-0-|
G|-------2---------2-------------------2---------------1-1-1-1-1-1-1-|
D|-----4---------4---------------------2---------------2-2-2-2-2-2-2-|
A|---4---------4-----------------------0---------------2-2-2-2-2-2-2-|
E|-2---------------------------------------------------0-0-0-0-0-0-0-|

Refrão:
    Bm
The stadium arcadium
  D
A mirror to the moon
    A
I'm forming, I'm warming
E
State of the art

Until the clouds come crashing
 Bm
Stranger things have happened
        D
Both before and afternoon
     A
I'm forming, I'm warming
E
Pushing myself

And no I don't mind asking...

Solo 1:
   F#m       A    F#m        A     E
...Now
E|-2~-----0-----|-------------------------|
B|-----------2~-|-2~------0---------------|
G|--------------|------------2~----1~-----|
D|--------------|----------------------4~-|
A|--------------|-------------------------|
E|--------------|-------------------------|

Parte 2:

  F#m                                     A
  Alone inside my forest room / And it's storming
E|--------------------------------------------------------|
B|----------------------------------------------2----2----|
G|-------2---------2--------------------------2----2------|
D|-----4---------4--------------------------2----2--------|
A|---4---------4--------------------------0---------------|
E|-2------------------------------------------------------|

   F#m                                 A               E
I never thought I'd be in bloom / But this is where I start
E|-------------------------------------0---------------0----|
B|-------------------------------------2---------------0----|
G|-------2---------2-------------------2---------------1----|
D|-----4---------4---------------------2---------------2----|
A|---4---------4-----------------------0---------------2----|
E|-2---------------------------------------------------0----|

  F#m
 Derelict days and the stereo plays / For the all night crowd / That it cannot phase
                                 And I'm calling
E|--------------------------------------------------------| |-------|
B|----------------------------------------------2----2----| |-------|
G|-------2---------2--------------------------2----2------| |-------|
D|-----4---------4--------------------------2----2--------| |-4b6r4-|
A|---4---------4--------------------------0---------------| |-------|
E|-2------------------------------------------------------| |-------|

 F#m
 Tedious weeds that the media breeds / But the animal gets what the animal needs
                                       A               E
                              And I'm sorry-                -y
E|-------------------------------------0---------------0-0-0-0-0-0-0-|
B|-------------------------------------2---------------0-0-0-0-0-0-0-|
G|-------2---------2-------------------2---------------1-1-1-1-1-1-1-|
D|-----4---------4---------------------2---------------2-2-2-2-2-2-2-|
A|---4---------4-----------------------0---------------2-2-2-2-2-2-2-|
E|-2---------------------------------------------------0-0-0-0-0-0-0-|

Refrão 2:

 Bm                             D
  The stadium arcadium      /     A mirror to the moon
E|---2-----2-----2-----2-----|----5-----5-----5-----5------|
B|-----3-----3-----3-----3---|------7-----7-----7-----7----|
G|-------4-----4-----4-----4-|--------7-----7-----7-----7--|
D|---------------------------|-----------------------------|
A|---------------------------|-----------------------------|
E|---------------------------|-----------------------------|
     A                            E
I'm forming I'm warming    /    State of the art, until the clouds come crashing
E|---0-----0-----0-----0-----|----0-----0-----0-----0------|
B|-----2-----2-----2-----2---|------0-----0-----0-----0----|
G|-------2-----2-----2-----2-|--------1-----1-----1-----1--|
D|---------------------------|-----------------------------|
A|---------------------------|-----------------------------|
E|---------------------------|-----------------------------|
     Bm
Stranger things have happened / Both before and after noon
E|---2-----2-----2-----2--------|------5-----5-----5-----5------|
B|-----3-----3-----3-----3------|--------7-----7-----7-----7----|
G|-------4-----4-----4-----4----|----------7-----7-----7-----7--|
D|------------------------------|-------------------------------|
A|------------------------------|-------------------------------|
E|------------------------------|-------------------------------|
     A                             E
I'm forming, I'm warming     /     Pushing myself, and no I don't mind asking
E|---0-----0-----0-----0-----|-----0-----0-----0-----0------------------------|
B|-----2-----2-----2-----2---|-------0-----0-----0-----0----------------------|
G|-------2-----2-----2-----2-|---------1-----1-----1-----1--------------------|
D|---------------------------|------------------------------------------------|
A|---------------------------|------------------------------------------------|
E|---------------------------|------------------------------------------------|

Solo 2:

(Guitarra 1)
E|-----------|-----------|-----------|-----------|
B|-----------|-----------|-----------|-----------|
G|-----------|-----------|-----------|-----------|
D|-4--4--4-4-|-6--6--6-6-|-7--7--7-7-|-9--9--9-9-|   [2x]
A|-4--4--4-4-|-6--6--6-6-|-7--7--7-7-|-9--9--9-9-|
E|-2--2--2-4-|-4--4--4-4-|-5--5--5-5-|-7--7--7-7-|

E|-----------|----------------|---------------|---------------|
B|-----------|----------------|---------------|---------------|
G|-----------|----------------|---------------|---------------|
D|-9--9--9-9-|-11--11--11--11-|-12--12--12-12-|-14--14--14-14-| [2x]
A|-9--9--9-9-|-11--11--11--11-|-12--12--12-12-|-14--14--14-14-|
E|-7--7--7-7-|-9---9---9---9--|-10--10--10-10-|-12--12--12-12-|

E|-----------|-----------|-----------|-----------|
B|-----------|-----------|-----------|-----------|
G|-----------|-----------|-----------|-----------|
D|-4--4--4-4-|-6--6--6-6-|-7--7--7-7-|-9--9--9-9-|   [2x]
A|-4--4--4-4-|-6--6--6-6-|-7--7--7-7-|-9--9--9-9-|
E|-2--2--2-4-|-4--4--4-4-|-5--5--5-5-|-7--7--7-7-|

( C#m  Bm )

(Guitarra 2)
E|-------------------|----------------------|
H|-------------------|----------------------|
G|--9h11-9---9h11-9~-|----------------------|
D|---------9---------|--9h11-11-9----9h11~--|
A|-------------------|------------11--------|
E|-------------------|----------------------|

E|------------------------|---------------------|
B|---------9--------------|---------------------|
G|------11-----------9~---|------11-------------|
D|-9h11------9\7-9p7---4~-|-9h11----9h11p9~-----|
A|------------------------|---------------------|
E|------------------------|---------------------|

E|-----------------------|--------------------------|
B|------10-9----9h10-----|--10h12---10-9-9h10p9-----|
G|---11------11------11~-|----------------------11~-|
D|-11--------------------|--------------------------|
A|-----------------------|--------------------------|
E|-----------------------|--------------------------|

E|----------------|----------------------|
B|----------------|----------------------|
G|--11-9----9h11--|------9---------------|
D|-------11-------|-9h11---11p9-7--9h11--|
A|----------------|----------------------|
E|----------------|----------------------|

E|-----9-11-9--------------|---------9---------------------|
B|------------12-9---------|-----------12-10-9--9h10-9-----|
G|-----------------11p9-11-|---------------------------11--|
D|--11---------------------|-------------------------------|
A|-------------------------|-------------------------------|
E|-------------------------|-------------------------------|

Parte 3:
     F#m                  A                 F#m
E|-------------------|------------------|-------------------|
B|-------------------|--------2----2----|-------------------|
G|-------2---------2-|------2----2------|-------2---------2-|
D|-----4---------4---|----2----2--------|-----4---------4---|
A|---4---------4-----|--0---------------|---4---------4-----|
E|-2-----------------|------------------|-2-----------------|
     A               E
  And this is where I find
E|----0---------------0----|
B|----2---------------0----|
G|----2---------------1----|
D|----2---------------2----|
A|----0---------------2----|
E|--------------------0----|
  F#m                                   A
  Rays of dust that wrap around / Your citizen
E|----------------------------------------------------| |---------|
B|--------------------------------------------2----2--| |-2h3-2---|
G|-------2---------2------------------------2----2----| |-------2-|
D|-----4---------4------------------------2----2------| |---------|
A|---4---------4------------------------0-------------| |---------|
E|-2--------------------------------------------------| |---------|
   F#m                                 A               E
   Kind enough to disavow    /    And this is where i stand
E|-------------------------------------0---------------0-0-0-0-0-0-0-0-|
B|-------------------------------------2---------------0-0-0-0-0-0-0-0-|
G|-------2---------2-------------------2---------------1-1-1-1-1-1-1-1-|
D|-----4---------4---------------------2---------------2-2-2-2-2-2-2-2-|
A|---4---------4-----------------------0---------------2-2-2-2-2-2-2-2-|
E|-2---------------------------------------------------0-0-0-0-0-0-0-0-|

Refrão 3:
  Bm                             D
  The stadium arcadium      /     A mirror to the moon
E|---2-----2-----2-----2-----|----5-----5-----5-----5------|
B|-----3-----3-----3-----3---|------7-----7-----7-----7----|
G|-------4-----4-----4-----4-|--------7-----7-----7-----7--|
D|---------------------------|-----------------------------|
A|---------------------------|-----------------------------|
E|---------------------------|-----------------------------|
     A                            E
I'm forming, I'm warming    /    State of the art, until the clouds come crashing
E|---0-----0-----0-----0-----|----0-----0-----0-----0------|
B|-----2-----2-----2-----2---|------0-----0-----0-----0----|
G|-------2-----2-----2-----2-|--------1-----1-----1-----1--|
D|---------------------------|-----------------------------|
A|---------------------------|-----------------------------|
E|---------------------------|-----------------------------|
     Bm
Stranger things have happened / Both before and after noon
E|---2-----2-----2-----2--------|------5-----5-----5-----5------|
B|-----3-----3-----3-----3------|--------7-----7-----7-----7----|
G|-------4-----4-----4-----4----|----------7-----7-----7-----7--|
D|------------------------------|-------------------------------|
A|------------------------------|-------------------------------|
E|------------------------------|-------------------------------|
     A                            E
I'm forming I'm warming     /     Pushing myself, and no I don't mind asking
E|---0-----0-----0-----0-----|----0-----0-----0-----0------------------------|
B|-----2-----2-----2-----2---|------0-----0-----0-----0----------------------|
G|-------2-----2-----2-----2-|--------1-----1-----1-----1--------------------|
D|---------------------------|-----------------------------------------------|
A|---------------------------|-----------------------------------------------|
E|---------------------------|-----------------------------------------------|

Refrão:
    Bm
The stadium arcadium
  D
A mirror to the moon
    A
I'm forming, I'm warming
E
State of the art

Until the clouds come crashing
 Bm
Stranger things have happened
        D
Both before and afternoon
     A
I'm forming, I'm warming
   E
To you

Clipes

Cifra Club Pro

Aproveite o Cifra Club com benefícios exclusivos e sem anúncios
7 dias grátis
Cifra Club Pro
Aproveite o Cifra Club com benefícios exclusivos e sem anúncios
7 dias grátis