busca

Tellin' A Lie

Red Hot Chili Peppers

Tom: G
Main Riff (x2):

0:02

E|---------------3---------6--------6--------6-----------------|
B|------3-----------3---------8--------8-----------------------|
G|---------3-----------3/8-------8--------8--------------------|
D|---5--------5------------------------------------------------|
A|-------------------------------------------------------------| 
E|-------------------------------------------------------------|

E|-----------------------------------8-------------------------|
B|---------6--------6------------10---------10-----------------|
G|------7--------7--------7--10---------10---------------------|
D|---8--------8--------8---------------------------------------|
A|-------------------------------------------------------------|
E|-------------------------------------------------------------|

E|---------------3h5p3--------6--------6--------6--------------|
B|---------3------------3--------8--------8--------------------|
G|------3-----3------------/7-------8--------8-----------------|
D|---5---------------------------------------------------------|
A|-------------------------------------------------------------|
E|-------------------------------------------------------------|

E|-------------------------------------------------------------|
B|---------6--------6------------------------------------------|
G|------7--------7--------7--------5-8-7-5---------------------|
D|---8--------8--------8--------7------------------------------|
A|---------------------------8---------------------------------|
E|-------------------------------------------------------------|

0:30

E|---------------3---------6--------6--------6-----------------|
B|------3-----------3---------8--------8-----------------------|
G|---------3-----------3/8-------8--------8--------------------|
D|---5--------5------------------------------------------------|
A|-------------------------------------------------------------| 
E|-------------------------------------------------------------|

E|-------------------------------------------------------------|
B|-------------------------------------------------------------|
G|------7------------------------------------------------------|
D|---8---------------------------------------------------------|
A|-------------------------------------------------------------|
E|-------------------------------------------------------------|

E|---------------3---------6--------6--------6-----------------|
B|------------------3---------8--------8-----------------------|
G|---------------------3/8-------8--------8--------------------|
D|-------------------------------------------------------------|
A|-------------------------------------------------------------| 
E|-------------------------------------------------------------|

E|-------------------------------------------------------------|
B|---------6--------6--------6--------6------------------------|
G|------7--------7--------7--------7--------7------------------|
D|---8--------8--------8--------8--------6---------------------|
A|-------------------------------------------------------------|
E|-------------------------------------------------------------|

Chorus:

0:43

E|-------------------------------------------------------------|
B|-------10-10-10----8-8--8--6---6-6-6-6-6---------------------|
G|-------10-10-10----8-8--8--7---7-7-7-7-7---------------------|
D|-------10-10-10----8-8--8--8---8-8-8-8-8---------------------|
A|---8---8--8--8-----6-6--6--8---8-8-8-8-8---------------------|
E|---------------------------6---6-6-6-6-6---------------------|

E|-------------------------------------------------------------|
B|-------10-10-10----8-8--8--6---6-6-6-6-6---------------------|
G|-------10-10-10----8-8--8--7---7-7-7-7-7---------------------|
D|-------10-10-10----8-8--8--8---8-8-8-8-8---------------------|
A|---8---8--8--8-----6-6--6--8---8-8-8-8-8--------------1x-3x--|
E|---------------------------6---6-6-6-6-6---------------------|

E|-------------------------------------------------------------|
B|---6---6--6-6---4-4---2--------------------------------------|
G|---6---6--6-6---5-5---3-----3---3----------------------------|
D|---6---6--6-6---6-6---4--------------------------------------|
A|---4---4--4-4---6-6---4--------------------------------------|
E|----------------4-4---2--------------------------------------|

E|-------------------------------------------------------------|
B|---1---1--1-1-1-1-1--1-----1---1--1-1-1-1-1--1---------------|
G|---2---2--2-2-2-2-2--2-----2---2--2-2-2-2-2--2---------------|
D|---3---3--3-3-3-3-3--3-----3---3--3-3-3-3-3--3---------------|
A|---3---3--3-3-3-3-3--3-----3---3--3-3-3-3-3--3---------------|
E|---1---1--1-1-1-1-1--1-----1---1--1-1-1-1-1--1---------------|

Main Riff (x2):

1:10

E|---------------3---------6--------6--------6-----------------|
B|------3-----------3---------8--------8-----------------------|
G|---------3-----------3/8-------8--------8--------------------|
D|---5--------5------------------------------------------------|
A|-------------------------------------------------------------|
E|-------------------------------------------------------------|

E|-----------------------------------8-------------------------|
B|---------6--------6------------10---------10-----------------|
G|------7--------7--------7--10---------10---------------------|
D|---8--------8--------8---------------------------------------|
A|-------------------------------------------------------------|
E|-------------------------------------------------------------|

E|---------------3h5p3--------6--------6--------6--------------|
B|---------3------------3--------8--------8--------------------|
G|------3-----3------------/7-------8--------8-----------------|
D|---5---------------------------------------------------------|
A|-------------------------------------------------------------|
E|-------------------------------------------------------------|

E|-------------------------------------------------------------|
B|---------6--------6------------------------------------------|
G|------7--------7--------7--------5-8-7-5---------------------|
D|---8--------8--------8--------7------------------------------|
A|---------------------------8---------------------------------|
E|-------------------------------------------------------------|

Riff Variation:

1:24

E|---------------3---------6--------6--------6-----------------|
B|------3-----------3---------8--------8-----------------------|
G|---------3-----------3/8-------8--------8--------------------|
D|---5--------5------------------------------------------------|
A|-------------------------------------------------------------|
E|-------------------------------------------------------------|

E|-----------------------------------8---------13--------------|
B|---------6--------6------------10---------10----10-----------|
G|------7--------7--------7--10---------10---------------------|
D|---8--------8--------8---------------------------------------|
A|-------------------------------------------------------------|
E|-------------------------------------------------------------|

E|---------------3h5p3--------6--------6--------6--------------|
B|---------3------------3--------8--------8--------------------|
G|------3-----3------------/7-------8--------8-----------------|
D|---5---------------------------------------------------------|
A|-------------------------------------------------------------|
E|-------------------------------------------------------------|

E|-------------------------------------------------------------|
B|---------6--------6--------6--------6--------6---------------|
G|------7--------7--------7--------7--------7------------------|
D|---8--------8--------8--------8--------8---------------------|
A|-------------------------------------------------------------|
E|-------------------------------------------------------------|

Chorus:

1:38

E|-------------------------------------------------------------|
B|-------10-10-10----8-8--8--6---6-6-6-6-6---------------------|
G|-------10-10-10----8-8--8--7---7-7-7-7-7---------------------|
D|-------10-10-10----8-8--8--8---8-8-8-8-8---------------------|
A|---8---8--8--8-----6-6--6--8---8-8-8-8-8---------------------|
E|---------------------------6---6-6-6-6-6---------------------|

E|-------------------------------------------------------------|
B|-------10-10-10----8-8--8--6---6-6-6-6-6---------------------|
G|-------10-10-10----8-8--8--7---7-7-7-7-7---------------------|
D|-------10-10-10----8-8--8--8---8-8-8-8-8---------------------|
A|---8---8--8--8-----6-6--6--8---8-8-8-8-8--------------1x-3x--|
E|---------------------------6---6-6-6-6-6---------------------|

E|-------------------------------------------------------------|
B|---6---6--6-6---4-4---2--------------------------------------|
G|---6---6--6-6---5-5---3--------------------------------------|
D|---6---6--6-6---6-6---4--------------------------------------|
A|---4---4--4-4---6-6---4--------------------------------------|
E|----------------4-4---2--------------------------------------|

E|-------------------------------------------------------------|
B|---1---1--1-1-1-1-1--1-----1---1--1-1-1-1-1--1---------------|
G|---2---2--2-2-2-2-2--2-----2---2--2-2-2-2-2--2---------------|
D|---3---3--3-3-3-3-3--3-----3---3--3-3-3-3-3--3---------------|
A|---3---3--3-3-3-3-3--3-----3---3--3-3-3-3-3--3---------------|
E|---1---1--1-1-1-1-1--1-----1---1--1-1-1-1-1--1---------------|

2:05

E|-----------------------13-13-13-13-13-13-16-16-16-16-16-16---|
B|---11--11--11--11--11----------------------------------------|
G|-----------------------10-10-10-10-10-10-13-13-13-13-13-13---|
D|---8---8---8---8---8-----------------------------------------|
A|-------------------------------------------------------------|
E|-------------------------------------------------------------|

E|---13-13-13-13-13-13-13-13-13-13-13-13-----------------------|
B|---------------------------------------13-13-13-13-13-13-----|
G|---10-10-10-10-10-10-10-10-10-10-10-10-----------------------|
D|---------------------------------------10-10-10-10-10-10-----|
A|-------------------------------------------------------------|
E|-------------------------------------------------------------|

E|-----------------------13-13-13-13-13-13-16-16-16-16-16-16---|
B|---11--11--11--11--11----------------------------------------|
G|-----------------------10-10-10-10-10-10-13-13-13-13-13-13---|
D|---8---8---8---8---8-----------------------------------------|
A|-------------------------------------------------------------|
E|-------------------------------------------------------------|

E|---13-13-13-13-13-13-13-13-13-13-13-13-13-13-13-13-13-13-13--|
B|------------------------------11-11-11-11-11-10-10-10-10-10--|
G|---10-10-10-10-10-10-10-10-10-10-10-10-10-10-10-10-10-10-10--|
D|-------------------------------------------------------------|
A|-------------------------------------------------------------|
E|-------------------------------------------------------------|

E|-----------------------13-13-13-13-13-13-16-16-16-16-16-16---|
B|--11-11-11-11-11-11-11---------------------------------------|
G|-----------------------10-10-10-10-10-10-13-13-13-13-13-13---|
D|--8--8--8--8--8--8--8----------------------------------------|
A|-------------------------------------------------------------|
E|-------------------------------------------------------------|

E|---13-13-13-13-13-13-13-13-13-13-13-13-----------------------|
B|---------------------------------------13-13-13-13-13-13-----|
G|---10-10-10-10-10-10-10-10-10-10-10-10-----------------------|
D|---------------------------------------10-10-10-10-10-10-----|
A|-------------------------------------------------------------|
E|-------------------------------------------------------------|

E|-------------------------------------------------------------|
B|--11-11-11-11-11-11-11-11-11-11-11-11-11-1------------------|
G|-------------------------------------------------------------|
D|--8--8--8--8--8--8--8-8--8--8--8--8--8--8--------------------|
A|-------------------------------------------------------------|
E|-------------------------------------------------------------|

E|-------------------------------------------------------------|
B|--9-9-9-9-9-9-9-9-9-9-9-9-9-9-9-9-9-9-9-9--------------------|
G|-------------------------------------------------------------|
D|--6-6-6-6-6-6-6-6-6-6-6-6-6-6-6-6-6-6-6-6--------------------|
A|-------------------------------------------------------------|
E|-------------------------------------------------------------|

E|-------------------------------------------------------------|
B|---10-10-10-10--10-10-10--10-10-10-10------------------------|
G|-------------------------------------------------------------|
D|---10-10-10-10--10-10-10--10-10-10-10------------------------|
A|---8--8--8--8---8--8--8---8--8--8--8-------------------------|
E|-------------------------------------------------------------|

Main Riff (x2):

2:33

E|---------------3h5p3--------6--------6--------6--------------|
B|---------3------------3--------8--------8--------------------|
G|------3-----3------------/7-------8--------8-----------------|
D|---5---------------------------------------------------------|
A|-------------------------------------------------------------|
E|-------------------------------------------------------------|

E|-----------------------------------8-------------------------|
B|---------6--------6------------10---------10-----------------|
G|------7--------7--------7--10---------10---------------------|
D|---8--------8--------8---------------------------------------|
A|-------------------------------------------------------------|
E|-------------------------------------------------------------|

Riff Variation:

1:47

E|---------------3---------6--------6--------6-----------------|
B|------3-----------3---------8--------8-----------------------|
G|---------3-----------3/8-------8--------8--------------------|
D|---5--------5------------------------------------------------|
A|-------------------------------------------------------------| 
E|-------------------------------------------------------------|

E|-----------------------------------15---------15-------------|
B|---------6--------6------------10---------10-----------------|
G|------7--------7--------7--10---------10---------------------|
D|---8--------8--------8---------------------------------------|
A|-------------------------------------------------------------|
E|-------------------------------------------------------------|

E|---------------3h5p3--------6--------6--------6--------------|
B|---------3------------3--------8--------8--------------------|
G|------3-----3------------/7-------8--------8-----------------|
D|---5---------------------------------------------------------|
A|-------------------------------------------------------------|
E|-------------------------------------------------------------|

E|-------------------------------------------------------------|
B|---------6--------6--------6--------6--------6---------------|
G|------7--------7--------7--------7--------7------------------|
D|---8--------8--------8--------8--------8---------------------|
A|-------------------------------------------------------------|
E|-------------------------------------------------------------|

Chorus:

3:00

E|-------------------------------------------------------------|
B|-------10-10-10----8-8--8--6---6-6-6-6-6---------------------|
G|-------10-10-10----8-8--8--7---7-7-7-7-7---------------------|
D|-------10-10-10----8-8--8--8---8-8-8-8-8---------------------|
A|---8---8--8--8-----6-6--6--8---8-8-8-8-8---------------------|
E|---------------------------6---6-6-6-6-6---------------------|

E|-------------------------------------------------------------|
B|-------10-10-10----8-8--8--6---6-6-6-6-6---------------------|
G|-------10-10-10----8-8--8--7---7-7-7-7-7---------------------|
D|-------10-10-10----8-8--8--8---8-8-8-8-8---------------------|
A|---8---8--8--8-----6-6--6--8---8-8-8-8-8--------------1x-3x--|
E|---------------------------6---6-6-6-6-6---------------------|

E|-------------------------------------------------------------|
B|---6---6--6-6---4-4---2--2-2-2-2-----------------------------|
G|---6---6--6-6---5-5---3--3-3-3-3-----------------------------|
D|---6---6--6-6---6-6---4--4-4-4-4-----------------------------|
A|---4---4--4-4---6-6---4--4-4-4-4-----------------------------|
E|----------------4-4---2--2-2-2-2-----------------------------|

E|-------------------------------------------------------------|
B|---1---1--1-1-1-1-1--1---------------------------------------|
G|---2---2--2-2-2-2-2--2---------------------------------------|
D|---3---3--3-3-3-3-3--3---------------------------------------|
A|---3---3--3-3-3-3-3--3---------------------------------------|
E|---1---1--1-1-1-1-1--1---------------------------------------|

3:24

E|-------------------------------------------------------------|
B|---9----9--9--9---9--9--9--9--9------------------------------|
G|---10---10-10-10--10-10-10-10-10-----------------------------|
D|---10---10-10-10--10-10-10-10-10-----------------------------|
A|---8----8--8--8---8--8--8--8--8------------------------------|
E|-------------------------------------------------------------|

E|-------------------------------------------------------------|
B|---8---8-8-8--8-8-8-8-8-8------------------------------------|
G|---8---8-8-8--8-8-8-8-8-8------------------------------------| (x2)
D|---8---8-8-8--8-8-8-8-8-8------------------------------------|
A|---6---6-6-6--6-6-6-6-6-6------------------------------------|
E|-------------------------------------------------------------|

E|-------------------------------------------------------------|
B|---10---10-10-10--10-10-10-10-10-----------------------------|
G|---10---10-10-10--10-10-10-10-10-----------------------------|
D|---10---10-10-10--10-10-10-10-10-----------------------------|
A|---8----8--8--8---8--8--8--8--8------------------------------|
E|-------------------------------------------------------------|

E|-------------------------------------------------------------|
B|---9----9--9--9---9--9--9--9--9------------------------------|
G|---10---10-10-10--10-10-10-10-10-----------------------------|
D|---10---10-10-10--10-10-10-10-10-----------------------------|
A|---8----8--8--8---8--8--8--8--8------------------------------|
E|-------------------------------------------------------------|

E|-------------------------------------------------------------|
B|---8---8-8-8--8-8-8-8-8-8------------------------------------|
G|---8---8-8-8--8-8-8-8-8-8------------------------------------|
D|---8---8-8-8--8-8-8-8-8-8------------------------------------|
A|---6---6-6-6--6-6-6-6-6-6------------------------------------|
E|-------------------------------------------------------------|

E|-------------------------------------------------------------|
B|-------------------------------------------------------------|
G|---3-3-3--3-3-3-3-3-3-3--3-3---------------------------------|
D|---4-4-4--4-4-4-4-4-4-4--4-4---------------------------------|
A|---4-4-4--4-4-4-4-4-4-4--4-4---------------------------------|
E|---2-2-2--2-2-2-2-2-2-2--2-2---------------------------------|

3:48

E|-----------11-11--11-11-11-----------------------------------|
B|---10---10-10-10--10-10-10-10-10-----------------------------|
G|---10---10-10-10--10-10-10-10-10-----------------------------|
D|---10---10-10-10--10-10-10-10-10-----------------------------|
A|---8----8--8--8---8--8--8--8--8------------------------------|
E|-------------------------------------------------------------|

E|-----------11-11--11-11-11-----------------------------------|
B|---9----9--9--9---9--9--9--9--9------------------------------|
G|---10---10-10-10--10-10-10-10-10-----------------------------|
D|---10---10-10-10--10-10-10-10-10-----------------------------|
A|---8----8--8--8---8--8--8--8--8------------------------------|
E|-------------------------------------------------------------|

E|-------------------------------------------------------------|
B|---8---8-8-8--8-8-8-8-8-8------------------------------------|
G|---8---8-8-8--8-8-8-8-8-8------------------------------------| (x2)
D|---8---8-8-8--8-8-8-8-8-8------------------------------------|
A|---6---6-6-6--6-6-6-6-6-6------------------------------------|
E|-------------------------------------------------------------|

E|-------------------------------------------------------------|
B|---10---10-10-10--10-10-10-10-10-----------------------------|
G|---10---10-10-10--10-10-10-10-10-----------------------------|
D|---10---10-10-10--10-10-10-10-10-----------------------------|
A|---8----8--8--8---8--8--8--8--8------------------------------|
E|-------------------------------------------------------------|

E|-------------------------------------------------------------|
B|---9----9--9--9---9--9--9--9--9------------------------------|
G|---10---10-10-10--10-10-10-10-10-----------------------------|
D|---10---10-10-10--10-10-10-10-10-----------------------------|
A|---8----8--8--8---8--8--8--8--8------------------------------|
E|-------------------------------------------------------------|

E|-------------------------------------------------------------|
B|---8---8-8-8--8-8-8-8-8-8------------------------------------|
G|---8---8-8-8--8-8-8-8-8-8------------------------------------|
D|---8---8-8-8--8-8-8-8-8-8------------------------------------|
A|---6---6-6-6--6-6-6-6-6-6------------------------------------|
E|-------------------------------------------------------------|

E|-------------------------------------------------------------|
B|---3---------------------------------------------------------|
G|---4---------------------------------------------------------|
D|---4---------------------------------------------------------|
A|---2---------------------------------------------------------|
E|-------------------------------------------------------------|

Clipes

Cifra Club Pro

Aproveite o Cifra Club com benefícios exclusivos e sem anúncios
7 dias grátis
Cifra Club Pro
Aproveite o Cifra Club com benefícios exclusivos e sem anúncios
7 dias grátis