A
123
X02220
B
234
X24442
E
123
022100
F#
234
244322
Tom: G
INTRO : Muted either use delay or repeat this 
        The "x"s by the way are blocked strings 
#1t1##1t2#e|-------------------------------------------------- 
b|-------------------------------------------------- 
g|-------------------------------------------------- 
d|----7--x--x------------7--x--x-------------------- 
a|----7--x--x------------7--x--x----- X2 ----------- 
E|----5--x--x------------5--x--x-------------------- #/1t2##/1t1#

#2t1#VERSES : D minor shape. delay here 
#2t2#e|---8---8----------10----10------------------------ 
b|---10--10---------10----10------------------------ 
g|---9---9-----------9-----9------------------------ 
d|-------------------------------------------------- 
a|-------------------------------------------------- 
E|-------------------------------------------------- #/2t2##/2t1#

PRE CHORUS : Wierd funky bass here barely hear the lead 
             anyway pick this near bridge to get twangy 
             sound delay here again 
#3t1##3t2#e|-------------------------------------------------- 
b|-------------------------------------------------- 
g|--7--9-9-9---7--7--9-9-9-9------------------------ 
d|-------------------------------------------------- 
a|-------------------------------------------------- 
E|-------------------------------------------------- #/3t2##/3t1#

#4t1#CHORUS :    all over ..... 
    B      F#        A         E 
#4t2#e|---------2-2-2-2------------------------------------ 
b|---------2-2-2-2---2-2-2-2-------------------------- 
g|---------3-3-3-3---2-2-2-2---1-1-1-1---------------- 
d|--4-4-4--4-4-4-4---2-2-2-2---2-2-2-2---------------- 
a|--2-2-2------------0-0-0-0---2-2-2-2---------------- 
E|-----------------------------0-0-0-0---------------- #/4t2##/4t1#

#5t1#SOLO : 
#5t2#e|------------14---12----10--12--10----------------- 
b|---12---12-------------------------12---12----7--- 
g|-------------------------------------------------- 
d|-------------------------------------------------- 
a|-------------------------------------------------- 
E|-------------------------------------------------- #/5t2##/5t1#

#6t1##6t2#e|------------14---12----10--12--10----------------- 
b|---12---12-------------------------12---12----7--- 
g|-------------------------------------------------- 
d|-------------------------------------------------- 
a|-------------------------------------------------- 
E|-------------------------------------------------- #/6t2##/6t1#

#7t1##7t2#e|----------2-0------------------------------------- 
b|--0----0-------3--2--3--2--0-------repeat a few-- 
g|---------------------------------------times------ 
d|-------------------------------------------------- 
a|-------------------------------------------------- 
E|-------------------------------------------------- #/7t2##/7t1#

Thats it comments complaints address above. 




************************************************************
************************************************************
version 2 :

Transcribed by: Chris Valente
Email: RedHotMetallica@aol.com

Damn froosh and his delay... I say it's not needed if you practice the rythym.
It's 1:00 AM so this is probably off some.
Intro

#8t1##8t2#-x----------------x-----------------x-----------------x-----------------------
-x----------------x-----------------x-----------------x-----------------------
-x----------------x-----------------x-----------------x-----------------------
------------------------------------------------------------------------------
------------------------------------------------------------------------------
------------------------------------------------------------------------------#/8t2##/8t1#
 Verse                                                                        

#9t1##9t2#-12---------------15----------------12----------------15----------------------
-13---------------13----------------13----------------13----------------------
-14---------------------------------14----------------------------------------
------------------15----------------------------------15----------------------
------------------------------------------------------------------------------
------------------------------------------------------------------------------#/9t2##/9t1#
 Chorus (Right Channel)                                                       

#10t1##10t2#------------------------------------------------------------------------------
------------------------------------------------------------------------------
-7h9--------------7---7h9-9-9-------------------------------------------------
------------------------------------------------------------------------------
-----77-77------7---7---------------------------------------------------------
-----------1010---------------------------------------------------------------#/10t2##/10t1#
 Bridge                                                                       

#11t1##11t2#------------------14----------------------------------12----------------------
-16---------------14---------------14-----------------12----------------------
-16---------------14---------------14-----------------13----------------------
-16---------------16---------------14-----------------14----------------------
-14---------------16---------------12-----------------14----------------------
------------------14----------------------------------12----------------------#/11t2##/11t1#
 Outro (Reat each line a few times)                                           

#12t1##12t2#--------------14-12-----12----------------------------------------------------
-12--12-12-12--------15----15---12--12-12-12--12------------------------------
-------------------------------------------------11---------------------------
------------------------------------------------------------------------------
------------------------------------------------------------------------------
------------------------------------------------------------------------------#/12t2##/12t1#
                                                                              

#13t1##13t2#-----------------0-2-0---0----------------------------------------------------
-0--00-0-000-00--------3----0--00-0-000-00------------------------------------
------------------------------------------------------------------------------
-------------------------------------------4----------------------------------
------------------------------------------------------------------------------
------------------------------------------------------------------------------#/13t2##/13t1#
                                                                              

************************************************************
************************************************************
version 3 :

Intro

#14t1##14t2#|---------------------------|
|---------------------------|
|---------------------------|
|--7--Delay and P.M---------|
|--7------------------------|
|--5------------------------|#/14t2##/14t1#

Verse

#15t1##15t2#|-8---15--Sometimes--12-----|
|-10--13-------------13-----|
|-9---12-------------12-----|
|---------------------------|
|---------------------------|
|---------------------------|#/15t2##/15t1#

Warp Time...

#16t1##16t2#|---------------------------|
|---------------------------|
|-7h9-9-9-9-7-7--9-9-9-9----|
|---------------------------|
|-(Pick-near-bridge)--------|
|---------------------------|#/16t2##/16t1#

Chorus

#17t1##17t2#|-10-------16--14------------|
|-7---10---14--12------------|
|-7---11---14--12------------|
|-----11---14----------------|
|-9---9----12--14------------|
|-7------------12------------|#/17t2##/17t1#

You probably know the rest
Composição: REDColaboração e revisão: Marco Matos