Lucy In The Sky With Diamonds

The Beatles

A
123
X02220
A7/G
1234
3X222X
Bb
234
X13331
C
123
X32010
C9
34
X35533
D
123
XX0232
Dm
123
XX0231
F
234
133211
F#m7
1234
2X222X
G
123
320003
Tom: G
Introdução:

#1t1##1t2#E|---------12------12--------------12------10p9-------|
B|-----10--------------10------10-----------------10--|
G|--9----------12----------11----------10-------------|
D|----------------------------------------------------|
A|----------------------------------------------------|
E|----------------------------------------------------|#/1t2##/1t1#


Primeira Parte:

#2t1#1
    A          A7/G        F#m7        F
#2t2#E|---------12------12--------------12------10p9-------|
B|-----10--------------10------10-----------------10--|
G|--9----------12----------11----------10-------------|
D|----------------------------------------------------|
A|--0----------10----------9-----------8--------------|
E|----------------------------------------------------|#/2t2##/2t1#

#3t1#2
    A          A7/G        F#m7        F
#3t2#E|---------12------12--------------12--8--12-8--------|
B|-----10--------------10------10------10-10-10-10----|
G|--9----------12----------11----------10-10-10----10-|
D|----------------------------------------------------|
A|--0----------10----------9-----------8--------8-----|
E|----------------------------------------------------|#/3t2##/3t1#

#4t1#3
    A          A7/G        F#m7        F
#4t2#E|---------12------12--------------12------10p9-------|
B|-----10--------------10------10-----------------10--|
G|--9----------12----------11----------10-------------|
D|----------------------------------------------------|
A|--0----------10----------9-----------8--------------|
E|----------------------------------------------------|#/4t2##/4t1#

#5t1#4
    A          A7/G       F#m7
#5t2#E|--------12------12------9--12--9--12--9--12---------|
B|----10--------------10--10-10--10-10--10-10---------|
G|-9----------12--------------------------------------|
D|----------------------------------------------------|
A|-0----------10----------9---------9-----------------|
E|----------------------------------------------------|#/5t2##/5t1#

#6t1#5
   Dm
#6t2#E|-10-13--10-13--10-13--------------------------------|
B|-10-10--10-10--10-10--------------------------------|
G|----------------------------------------------------|
D|----------------------------------------------------|
A|----------------------------------------------------|
E|-10--------10---------------------------------------|#/6t2##/6t1#


 A             A7/G      F#m7      F
Picture yourself in a boat on a river
      A      A7/G     F#m7       F
With tangerine trees and marmalade skies
 A        A7/G          F#m7           F
Somebody calls you, you answer quite slowly
   A           A7/G      F#m7  Dm
A girl with kaleidoscope eyes


Segunda Parte:

 Bb                    C
Celophane flowers of yellow and green
 F                  Bb
Towering over your head
 C                          G
Look for the girl with the sun in her eyes
             D
And she's gone


Refrão:

#7t1#1
   G        C9            D
#7t2#E|-3-3-3-3--3---3-3---2---3-2--2-2--2-2--2--|
B|-3-3-3-3--3---3-3---3---3-3--3-3--3-3--3--|
G|-0-0-0-0--0---0-0---2---2-2--2-2--2-2--2--|
D|-0-0-0-0--2---0-2---0---0-0--0-0--0-0--0--|
A|-2-2-0-2--3-------------------------------|
E|-3-3--------------------------------------|#/7t2##/7t1#

#8t1#   G        C9            D
#8t2#E|-3-3-3-3--3---3-3---2---3-2--2-2--2-2--2--|
B|-3-3-3-3--3---3-3---3---3-3--3-3--3-3--3--|
G|-0-0-0-0--0---0-0---2---2-2--2-2--2-2--2--|
D|-0-0-0-0--2---0-2---0---0-0--0-0--0-0--0--|
A|-2-2-0-2--3-------------------------------|
E|-3-3--------------------------------------|#/8t2##/8t1#

#9t1#   G        C9            D
#9t2#E|-3-3-3-3--3---3-3---2---3-2--2-2--2-2--2--|
B|-3-3-3-3--3---3-3---3---3-3--3-3--3-3--3--|
G|-0-0-0-0--0---0-0---2---2-2--2-2--2-2--2--|
D|-0-0-0-0--2---0-2---0---0-0--0-0--0-0--0--|
A|-2-2-0-2--3-------------------------------|
E|-3-3--------------------------------------|#/9t2##/9t1#

#10t1#2
   D
#10t2#E|-2---2-2---2-2---2-2--2-------------------|
B|-3---3-3---3-3---3-3--3-------------------|
G|-2---2-2---2-2---2-2--2-------------------|
D|-0---0-0---0-0---0-0--0-------------------|
A|------------------------------------------|
E|------------------------------------------|#/10t2##/10t1#

#11t1#3
   D
#11t2#E|-2---2-2---2-2---2-2--2-------------------|
B|-3---3-3---3-3---3-3--3-------------------|
G|-2---2-2---2-2---2-2--2-------------------|
D|-0---0-0---0-0---0-0--0-------------------|
A|------------------------------------------|
E|------------------------------------------|#/11t2##/11t1#

#12t1#4
   A
#12t2#E|-0---0-0---0-0---0-0--0-------------------|
B|-2---2-2---2-2---2-2--2-------------------|
G|-2---2-2---2-2---2-2--2-------------------|
D|-2---2-2---2-2---2-2--2-------------------|
A|-0---0-0---0-0---0-0--0-------------------|
E|------------------------------------------|#/12t2##/12t1#


 G            C9      D
Lucy in the sky with diamonds 
 G            C9      D
Lucy in the sky with diamonds 
 G            C9      D
Lucy in the sky with diamonds 
D
Ahh


Repete a Primeira Parte:

 A            A7/G       F#m7       F
Follow her down to a bridge by a fountain
       A                 A7/G       F#m7        F
Where rocking horse people eat marshmallow pies
A          A7/G          F#m7           F
Everyone smiles as you drift past the flowers
       A         A7/G    F#m7  Dm
That grow so incredibly high


Repete a Segunda Parte:

 Bb                C
Newspaper taxis appear on the shore
 F                    Bb
Waiting to take you away
  C                          G
Climb in the back with your head in the clouds
            D
And you're gone


Repete o Refrão:

 G            C9      D
Lucy in the sky with diamonds 
 G            C9      D
Lucy in the sky with diamonds 
 G            C9      D
Lucy in the sky with diamonds 
D
Ahh


Repete a Primeira Parte:

 A             A7/G       F#m7       F
Picture yourself on a train in a station
       A             A7/G         F#m7          F
With plasticine porters with looking glass ties
 A         A7/G        F#m7        F
Suddenly, someone is there at the turnstile
     A           A7/G      F#m7  Dm
The girl with kaleidoscope eyes


Refrão Final:

 G            C9      D
Lucy in the sky with diamonds 
 G            C9      D
Lucy in the sky with diamonds 
 G            C9      D
Lucy in the sky with diamonds
D      A
Ahh...

 G            C9      D
Lucy in the sky with diamonds 
 G            C9      D
Lucy in the sky with diamonds 
 G            C9      D
Lucy in the sky with diamonds
D      A
Ahh...

 G            C9      D
Lucy in the sky with diamonds 
 G            C9      D
Lucy in the sky with diamonds 
 G            C9      D
Lucy in the sky with diamonds
Composição: John Lennon / Paul McCartneyColaboração e revisão: Gustavo CunhaGianluca CaetanoBianca LimaPedro Arantese mais 7
Videoaula Lucy In The Sky With Diamonds (aula de violão completa)