busca

Not Guilty

The Beatles

Tom: C
     Em
E|--------------|
B|------------0-|
G|--------------|
D|-2/7--5/12----|
A|--------------|
E|--------------|

     Am
Not guilty
    B7               Em
For getting in your way
             B7                   E   E+ E7
While you're trying to steal the day

    Am
Not guilty
       B7                Em
And I'm not here for the rest
        B7                   Em   Em/D
I'm not trying to steal your vest.

E                      E7
I am not trying to be smart
                        Am7/G
I only want what I can get
            Em7            Em6
I'm really sorry for your ageing head
    Em                Em7+
But like you heard me said
      Am
Not guilty.
       B7           Em
No use handing me a writ
          B7               Em   Em/D
While I'm trying to do my bit.

E                            E7
I don't expect to take your heart
                        Am7/G
I only want what I can get
            Em7              Em6
I'm really sorry that you're underfed
     Em                Em7+
But like you heard me said
      Am
Not guilty.

Instrumental:
      Em7      Em6       Em
E|--------------|---------------------------|
B|------------0-|---------------------------|
G|--------------|-----------TWICE-----------|
D|-2/7--5/12----|---------------------------|
A|--------------|---------------------------|
E|--------------|---------------------------|

(Play Verse 2 Chords)

     Am
Not guilty
      B7             Em
For looking like a freak
         B7                E   E+ E7
Making friends with every Sikh
     Am
Not guilty

      B7           Em
For leading you astray
        B7           Em   Em/D
On the road to Mandalay.


E                        E7
I won't upset the apple cart
                        Am7/G
I only want what I can get
N.C        Em7              Em6
I'm really sorry that you've been misled
     Em                Em7+
But like you heard me said
         Am
Not guilty.

ENDING (repeat until fade):

      Em7      Em6       Em     Em      Am
E|--------------|---------------------------|
B|------------0-|---------------------------|
G|--------------|-----------ONCE------------|
D|-2/7--5/12----|---------------------------|
A|--------------|---------------------------|
E|--------------|---------------------------|

Clipes