busca

She Said She Said

The Beatles

Tom: Eb (forma dos acordes no tom de D) Capotraste na 1ª casa
Intro: (com capo)
E|-----------------0-----|
B|----0--2-3--2-3--------|
G|--2-----------------2--|
D|-----------------------|
A|-----------------------|
E|-----------------------|

Riffs: (com capo)

...is like to be dead
E|----------------------------------|
B|--------------------0--2-3-2------|
G|-----------------2----------------|
D|------------------------------2---|
A|----------------------------------|
E|----------------------------------|

...it is to de sad
E|------------------------------0----|
B|----------------0--2-3--2-3--------|
G|-------------2-------------------2-|
D|-----------------------------------|
A|-----------------------------------|
E|-----------------------------------|

...I've never been born
E|------------------------------------------|
B|--------------------------0---------------|
G|----------------4b--2--0-----0------0---2-|
D|----------------------------------2---2---|
A|------------------------------------------|
E|------------------------------------------|


Intro: A

A      G  D
She said
                   A        G     D
"I know what it's like to be dead
               A       G   D
I know what it is to be sad"
           A         G
And she's making me feel like
      D          A     A G  D A
I've never been born

A      G  D
I said
                     A           G      D
"Who put all those things in your head?
                     A         G      D
Things that make me feel that I'm mad
            A         G
And you're making me feel like
      D          A     A G  D A
I've never been born"


A          G               D           A
She said "You don't understand what I said"
         G                A
I said "No, no, no, you're wrong"
              Em  A7
When I was a boy
                D   A7                 D
Everything was right   everything was right


A      G  D
I said
                   A          G     D
"Even though you know what you know,
                 A      G      D
I know that I'm ready to leave
                A         G
Because you're making me feel like
      D          A     A G  D A
I've never been born"


A          G               D           A
She said "You don't understand what I said"
         G                A
I said "No, no, no, you're wrong"
              Em  A7
When I was a boy
                D   A7                 D
Everything was right   everything was right


A      G  D
I said
                   A          G     D
"Even though you know what you know,
                 A      G      D
I know that I'm ready to leave
                A         G
Because you're making me feel like
      D          A     A G  D A
I've never been born"

A       G   D
She said (she said)
                  A
I know what it's like to be dead (I know what it's like to be dead)
A
I know what it is to be sad (I know what it is to be sad)
A
I know what it's like to be dead...

Clipes