busca

The Honeymoon Song

The Beatles

Tom: E
Intro: 

|----4------5------7------9-------7-------5-------4------0--------------------------------|
|----5------7------9------10------9-------7-------5------0--------------------------------|
|-----------------------------------------------------------------------------------------|
|-----------------------------------------------------------------------------------------|
|-------------------------------------------------------------0/2-------0-----------------|
|-------------------------------------------------- ---------------------------4-------2--|

|-----------------------------------------------------------------------------------------|
|-----------------------------------------------------------------------------------------|
|-----------------------------------------------------------------------------------------|
|-----------------------------------------------------------------------------------------|
|-----------------------------------------------------------------------------------------|
|---0-------------------------------------------------------------------------------------|

       E              A
I never knew that a day 
                      E
Like today lay before us. 

|------12------11---------------------------------------------------------------------|
|--------------------------12-------9-------12----------------------------------------|
|-------------------------------------------------------------------------------------|
|-------------------------------------------------------------------------------------|
|-------------------------------------------------------------------------------------|
|-------------------------------------------------------------------------------------|
                     A
I've got the sun in my heart 
                     B
And my heart's in the sun. 

B Bb A E

                E
Skies are as bright 
           A
As your eyes, 
                E
The horizon is open.
   A            B
Love is the ceiling, 
   A              G#m          A
Feelings are reelings 
             E
Free as the air. 

|--------------12-------11-----------------------------------------|
|-------------------------------12-----9-----12--------------------|
|------------------------------------------------------------------|
|------------------------------------------------------------------|
|------------------------------------------------------------------|
|------------------------------------------------------------------|

    C#m                 G#m
Forever on and forever,

|--------------12-------11-----------------------------------------|
|-------------------------------12-----9-----12--------------------|
|------------------------------------------------------------------|
|------------------------------------------------------------------|
|------------------------------------------------------------------|
|------------------------------------------------------------------|

  C#m                 E
Forever on side by side. 
                      A
Who ever knew that we two 
                      E
Could be free as we'd fancy,
    A         B
Fancy is free 
  A                G#m
But are we bound 
     A            E
To each other by love,
     A            E
To each other by love? 
   
|----4------5------7------9-------7-------5-------4------0-------------|
|----5------7------9------10------9-------7-------5------0-------------|
|----------------------------------------------------------------------|
|----------------------------------------------------------------------|
|----------------------------------------------------------------------|
|----------------------------------------------------------------------|

|----4------5------7------9-------7-------9-------11-------------------|
|----5------7------9------10------9------10-------12-------------------|
|----------------------------------------------------------------------|
|----------------------------------------------------------------------|
|----------------------------------------------------------------------|
|----------------------------------------------------------------------|

( B  Bb  A  E )

                       A
Who ever knew that we two 
                       E
Could be free as we'd fancy,
    A         B
Fancy is free 
  A          G#m
But are we bound 
     A            E
To each other by love,
     A            E
To each other by love? 
    A             E
To each other by love, 
     A            E
To each other by love?

|----4------5------7------9------11------7---------------------------------------|
|----5------7------9------10-----12------9---------------------------------------|
|--------------------------------------------------------------------------------|
|--------------------------------------------------------------------------------|
|----------------------------------------------0/2-------0-----------------------|
|---------------------------------------------------------------------4-------2--|

|-------------------------------------------------------------------------|
|-------------------------------------------------------------------------|
|------1--------1--------1------------------------------------------------|
|------2--------2--------2------------------------------------------------|
|------2--------2--------2------------------------------------------------|
|-------------------------------------------------------------------------|

Clipes

Cifra Club Pro

Aproveite o Cifra Club com benefícios exclusivos e sem anúncios
7 dias grátis
Cifra Club Pro
Aproveite o Cifra Club com benefícios exclusivos e sem anúncios
7 dias grátis