busca

This Boy

The Beatles

Tom: D
[Intro]  D  D9  D  D9
         D  Bm  Em7  A

E|-2--2--2--2--|
B|-3--3--3--3--|
G|-2--2--2--2--|
D|-4--0--4--0--|
A|-5--5--5--5--|
E|-x--x--x--x--|
 
D       Bm   Em7        A      D   Bm
That boy        took my love away
Em7        A           D          Bm
   He'll regret it someday-yi-yay
    Em7      A               D   Bm   Em7   A
But this boy wants you back again
D       Bm Em7     A        D    Bm
That boy     isn't good for you
Em7       A            D   Bm
  Tho' he may want you too
Em7      A               D      D7/9
This boy wants you back again

D7/9     G                 F#7
 Oh, and this boy would be happy
        Bm               D7/9
Just to love you, but oh my
G                 E7
That boy won't be happy
A
Till he's seen you cry
D       Bm  Em7        A        D   Bm
This boy      wouldn't mind the pain
Em7     A               D   Bm
  Would always feel the same
Em7         A              D   Bm   Em7   A
If this boy gets you back again
D       Bm      Em7      A
This boy

Riff
E|-----------------------------------------------|
B|-----------------------------------------------|
G|-7--6--4--6-------7--6--4--6--------7--6--4--6-|
D|------------4s7--------------4s7---------------|
A|-----------------------------------------------|
E|-----------------------------------------------|

Clipes