busca

Ticket To Ride

The Beatles

Tom: D
Intro: A (Riff 1) x4

    A (Riff 1)
I think I'm gonna be sad   I think it's today, yeah!
                                         Bm (Riff 2)   E
The girl that's driving me mad is going away
  F#m                  D7    F#m                  Gmaj7
She's got a ticket to ride  she's got a ticket to ride
 F#m                    E                   A (Riff 1)
She's got a ticket to ride  but she don't care.


    A (Riff 1)
She said that linving with me  was bringing her down, yeah!
                                            Bm (Riff 2)  E
For she would never be free   when I was around
F#m                   D7    F#m                    Gmaj7
She's got a ticket to ride  she's got a ticket to ride
F#m                    E                 A (Riff 1)
She's got a ticket to ride but she don't care

  D
I don't know why she's riding so high
                                                       E  E7
She ought to think twice   she ought to do it right by me
D7
Before she gets to saying goodbye
                                                       E
She ought to think twice   she ought to do it right by me

Solo:
E|------------------------10------12b14--12--10--12--|
B|--10b12r10--8----10h12------12---------------------|
G|--------------9------------------------------------|
D|---------------------------------------------------|
A|---------------------------------------------------|
E|---------------------------------------------------|

    A (Riff 1)
I think I'm gonna be sad   I think it's today, yeah
                                         Bm (Riff 2) E
The girl that's driving me mad is going away
 F#m                  D     F#m                   G
She's got a ticket to ride  she's got a ticket to ride
 F#m                    E                 A (Riff 1)
She's got a ticket to ride  but she don't care.

               A
My baby don't care
E|-------------------------------|-------------------------------|
B|-------------------------------|-------------------------------|
G|--------5b6r5-------7b8r7------|5b6r5---5b6r5------------------|
D|----------------7-----------7--|----------------7--------------|
A|-------------------------------|-------------------------------|
E|-------------------------------|-------------------------------|
               A
My baby don't care
E|-------------------------------|-------------------------------|
B|--------7b8r7------------------|--------7b8--------------------|
G|----------------7b8r7---5b6----|----------------7b8-----5b6----|
D|-------------------------------|----7--------------------------|
A|-------------------------------|-------------------------------|
E|-------------------------------|-------------------------------|
               A
My baby don't care...
E|-------------------------------|-------------------------------|
B|-------------------------------|----7b8------------------------|
G|--------5b6r5-------7b8-5b6----|-------------------------------|
D|7---------------7-----------7--|-------------------------------|
A|-------------------------------|-------------------------------|
E|-------------------------------|-------------------------------|

E|-------------------------------|-------------------------------|
B|---7b8r7-----7b8r7----7b8r7----|-------------------------------|
G|---7b8r7-----7b8r7----7b8r7----|---5b6---------6b7-5b6---------|
D|-------------------------------|------------7------------------|
A|-------------------------------|-------------------------------|
E|-------------------------------|-------------------------------|

E|-------------------------------|----------------------------5--|
B|----------------------------7b8|7b8-----7b8-----7b8-7b8--------|
G|----5b6r5-------7b8r7----------|-------------------------------|
D|7-----------7-----------7------|-------------------------------|
A|-------------------------------|-------------------------------|
E|-------------------------------|-------------------------------|
  ..............................Fade.............................


Riff 1:                     Riff 2:                 

E|----0--------0--|      E|----2-----------|      
B|------2---0-----|      B|------3-----3---|      
G|-2------2-------|      G|-4--------4-----|      
D|----------------|      D|--------4-------|      
A|----------------|      A|----------------|      
E|----------------|      E|----------------|

Clipes

Cifra Club Pro

Aproveite o Cifra Club com benefícios exclusivos e sem anúncios
7 dias grátis
Cifra Club Pro
Aproveite o Cifra Club com benefícios exclusivos e sem anúncios
7 dias grátis