busca

Acorrentado Em Você

Bruno e Marrone

Tom: Bb
Introdução: Cm Cm7/Bb Fm G

e|---------------------------------------------------------------------------------|
B|-5/6-8-6-----------5/6-8-6----------8-9--9h8-6---6---------8-8-8-9-8-6-----------|
G|---------8-8-7-8-----------8-8-7-8-------------8---8-7-5-4-------------8-7-5-4-5-|
D|---------------------------------------------------------------------------------|
A|---------------------------------------------------------------------------------|
E|---------------------------------------------------------------------------------|

        Cm
Eu não sei o que é que eu faço
          Fm           
Estou num beco sem saída
       Bb                        Eb7+
Não consigo tirar você da minha vida
    C7
Era só uma brincadeira
     Fm
Era só uma aventura
      D7
De repente virou um vício
      G                 
De repente virou loucura
        Cm   
Eu não sei o que é que eu faço
             Fm
Por que é que eu fui brincar com fogo
       Bb   
O meu coração se distraiu
       Eb7+
E entregou o jogo
     C7 
Faço tudo que posso eu luto
        Fm
Pra quebrar essa corrente
       D7
Eu me viro até do avesso
      G                  
Pra parar de pensar na gente
        C 
Mas na hora que dá vontade
          Dm
Não tem jeito eu não me seguro
     F              G     
Na batalha com a saudade
       C            G  
Eu me rendo e te procuro
      C                C7         
Já cansei de brincar comigo
         F             Fm
E não consigo te esquecer
      C            Dm    G    C
Eu me sinto acorrentado em você

Solo: C Am Dm G C C7 F Fm C G Cm

e|----------8--8-10-12-12-13-11/12-11----------8/9-8-9--11-13-15-15-13---------------
B|-----5-6-8--------------------------10-12-8--------------------------13-9/11-------
G|-5~--------------------------------------------------------------------------13-12-
D|-----------------------------------------------------------------------------------
A|-----------------------------------------------------------------------------------
E|-----------------------------------------------------------------------------------
-12-14/16-15-14-15-------------------------------|
-------------------------------------------------|
-------------------------------------------------|
-------------------------------------------------|
-------------------------------------------------|
-------------------------------------------------|

        Cm
Eu não sei o que é que eu faço
          Fm           
Estou num beco sem saída
       Bb                        Eb7+
Não consigo tirar você da minha vida
    C7
Era só uma brincadeira
    Fm
Era só uma aventura
      D7
De repente virou um vício
      G                 
De repente virou loucura
        Cm   
Eu não sei o que é que eu faço
             Fm
Por que é que eu fui brincar com fogo
       Bb   
O meu coração se distraiu
       Eb7+
E entregou o jogo
     C7 
Faço tudo que posso eu luto
        Fm
Pra quebrar essa corrente
       D7
Eu me viro até do avesso
      G                  
Pra parar de pensar na gente
        C 
Mas na hora que dá vontade
          Dm
Não tem jeito eu não me seguro
     F              G     
Na batalha com a saudade
       C            G  
Eu me rendo e te procuro
      C                C7         
Já cansei de brincar comigo
         F             Fm
E não consigo te esquecer
      C            Dm    G    C  F Fm C
Eu me sinto acorrentado em você

riff 1
e|------------------------|
B|-4-4-4-4h5h4---------4--|
G|-------------5----------|
D|---------------5/4------|

riff 02
e|-------|              
B|-------|              
G|-----5-|              
D|-4-5---|              

riff03  
e|-------|              
B|----4--|              
G|-------|              
D|-5h4---|              

Riff04
e|-------|              
B|-----5-|              
G|-------|              
D|-5h4---|              

Riff05 
e|---10--|
B|--10---|
G|-9-----|
D|-------|

Riff06
e|--------------|
B|-----------4--|
G|-9-7-5-4h3----|
D|--------------|

Riff07
e|-------------|
B|-------------|
G|-------------|
D|-------------|
A|--5-6-7------|

Riff08
e|------------------------|
B|--4h5h4--------------4--|
G|-------------5----------|
D|---------------5/4------|
        
Riff09
e|-------------|
B|-------------|
G|-------------|
D|-------------|
A|-7-6-5-3-----|

 Riff10
                    C
e|------------------0--|
B|-4-4-4-5-4--------1--|
G|-----------5-4----0--|
D|------------------2--|
A|------------------3--|
E|------------------0--|

Clipes

Cifra Club Pro

Aproveite o Cifra Club com benefícios exclusivos e sem anúncios
Cifra Club Pro
Aproveite o Cifra Club com benefícios exclusivos e sem anúncios