|-------------------------------------/|-------------------------------------/|-------------" /> |-------------------------------------/|-------------------------------------/|-------------">
busca

Choro Choro

Bruno e Marrone

Tom: C
Introdução - C - Am - F - G
Solinho

|-------------------------------------
|-------------------------------------
|-------------------------------------
|-------3-3h5--3----------------------
|-3h5-------------5h3----5------------
|-------------------------------------

|--5-----5-------------------------------
|--6h5---6------7h8-7--5---5-5-5-5-------
|--5-----5---------------7---------7-5-5-
|----------------------------------------
|----------------------------------------
|----------------------------------------

|-------------------------------------
|-------------------------------------
|-------------------------------------
|-------3-3h5--3----------------------
|-3h5-------------5h3----5------------
|-------------------------------------

|--5-----5-------------------------------
|--6h5---6------6h5---5-----5h6-5---5-----
|--5-----5----------7---7---------7---5--
|----------------------------------------
|----------------------------------------
|----------------------------------------


         C
Saudade de você
        Dm7
Vontade de te ver
                  F
Depois que eu te perdi
               G                          C  - G
Eu nunca mais te vi  não deu pra te esquecer

         C
Um dia prometeu
            Dm7
Amor e não me deu
           F
Por um motivo só
         G                       C - C7
Você não teve dó e desapareceu

  F                  G
E hoje eu choro choro choro
C                     Am
Por seu amor a deus imploro
     F                  G
Vem logo e traz o meu desejo
           C    -  C7
Que eu to com medo

F                       G
O sol é o brilho dos seus olhos
    C                      Am
A brisa é o beijo dos seus lábios
F                      G                 C       
A tarde cai e a noite eu choro choro choro

---Solinho***

         C
Saudade de você
        Dm7
Vontade de te ver
                  F
Depois que eu te perdi
               G                          C  - G
Eu nunca mais te vi  não deu pra te esquecer

         C
Um dia prometeu
            Dm7
Amor e não me deu
           F
Por um motivo só
         G                       C - C7
Você não teve dó e desapareceu

  F                  G
E hoje eu choro choro choro
C                     Am
Por seu amor a deus imploro
     F                  G
Vem logo e traz o meu desejo
           C    -  C7
Que eu to com medo

F                       G
O sol é o brilho dos seus olhos
    C                      Am
A brisa é o beijo dos seus lábios
F                      G                 C  - C7      
A tarde cai e a noite eu choro choro choro

     F                 G
Por isso eu choro choro choro
C                     Am
Por seu amor a deus imploro
     F                  G
Vem logo e traz o meu desejo
           C    -  C7
Que eu to com medo

F                       G
O sol é o brilho dos seus olhos
    C                      Am
A brisa é o beijo dos seus lábios
F                      G                 C       
A tarde cai e a noite eu choro choro choro 
Am                F              G                 C       
          A tarde cai e a noite eu choro choro choro
Am                F               G                 F - G - C       
          A tarde cai e a noite eu choro choro choro

Clipes