busca

Te Amar Foi Ilusão

Bruno e Marrone

Tom: C
Obs.: Essa música tem umas quebras de tempo bem foda, e esse é o 
      detalhe que caracteriza ela, tornando-a diferente das demais
      que transcrevo... Quando comecei a transcrever não tinha nem 
      idéia do que ia fazer pra escrever os tempos quebradões, tive 
      que inventar um esquema... Então coloquei os acordes quebrados 
      entre colchetes "[]". Nas cifras que transcrevo, quando dois 
      acordes estão separados por um traço, é porque o tempo já é 
      quebrado, mas nessa música o tempo é mais quebrado ainda! 
      Dentro do tempo quebrado tem uma quebra... Pra tocar a música 
      com as quebras de tempo, só ouvindo ela. Os acordes foram 
      tirados de ouvido, então pode ter algum erro.

· Os acordes ligados com traço fazem parte do mesmo tempo.
· Os acordes entre parênteses () não são tocados, estão ali apenas pra marcar o tempo.
· Os acordes entre colchetes [] dividem um quarto de tempo.
· Os acordes seguidos de um ponto de exclamação "!" são tocados com emoção e som é abafado em seguida.
· A posição dos acordes sobre a letra segue à risca o instante exato que ele é tocado.

[Solo Intro:]
               G                      G           F                   F
e|-------------5--7--------8-7------7-------------------------5-3-------
B|--5----6--8--------8---------8/10---8--------8--8-10------------6-5-6-
G|----------------------/7---------------7--9----------10--/5-----------
D|----------------------------------------------------------------------
A|----------------------------------------------------------------------
E|----------------------------------------------------------------------
            C             -F           G  -F         -Am         -G
-8--10--12--13-10/12-10----17-15-13-12-15--13--12--10h12p10-----------|
------------------------13----------------------------------12-10-----|
------------------------------------------------------------------12--|
----------------------------------------------------------------------|
----------------------------------------------------------------------|
----------------------------------------------------------------------|

[Intro:] G G F F C-F G-F-Am-G

[Verso 1:]
    C-[C-C9]-C7M-(C)
Eu sei
    C                                G   -G9
Talvez eu tenha sufocado o teu sentimento
     G                            F   -F7M
Não consegui sintonizar teu pensamento
   F                          C
Saber o que você queria arrancar de mim
       G
Me deixando assim
     F
Não sei
   F                                       C
Será que eu me enganei o tempo todo com o seu olhar
    C                               G    -G-F-G
Apesar de tudo o que vivi eu me deixei levar
    F     -G
Que ilusão
         C-C-[C-G/B]-Am
Foi te amar

[Refrão 1:]
G -G -Am-G/B C
  Vai encontrar
    C!                                         G
Alguém que você ame e que te faça o que fez comigo
G           F
  E vai chorar
      F                                     C-C
Cada lágrima que um dia derramei por te quereeer
[-C-G/B]-Am  G
   Por  te amar
-G -Am -G/B   C
 E vai sen...tir
   C         -C               -C     -[C   -Am]   G
A dor da indiferença desse alguém que só te en...gana
G           F -F
  Vai aprender
     G                  -G!
A viver e dar valor no amor
           C  -G
De quem te ama

[Solo:] C G Am Am Dm F-G C

E|------------------------------------------------------------------------------
B|----3-5-6-5-5-3-5---3h5-5-3-3---3-----3-3-------------------------------------
G|--5---------------5-----------5---4-5-----5-4-5---5-4-2---4-5-2---2-----------
D|--------------------------------------------------------5-------5-------------
A|------------------------------------------------------------------------------
E|------------------------------------------------------------------------------


E|-------------------------------------------------------------------/8---------
B|--5-7-8-7-7-5-7-----7-5-----------------------------------3-5-7-8-------------
G|------------------------7-5-4---4-5-7---4-5---4-5-7--4--5---------------------
D|------------------------------5-------5-----7---------------------------------
A|------------------------------------------------------------------------------
E|------------------------------------------------------------------------------

[Verso 2:]
     F-F-F-G
Não sei
   F                                       C
Será que eu me enganei o tempo todo com o seu olhar
    C                               G    -G-F-G
Apesar de tudo o que vivi eu me deixei levar
    F     -G
Que ilusão
         C-C-[C-G/B]-Am
Foi te amar

[Refrão 2:]
G -G -Am-G/B C
  Vai encontrar
    C!                                         G
Alguém que você ame e que te faça o que fez comigo
G           F
  E vai chorar
      F                                     C-C
Cada lágrima que um dia derramei por te quereeer
[-C-G/B]-Am  G
   Por  te amar
-G -Am -G/B   C
 E vai sen...tir
   C         -C               -C     -[C   -Am]   G
A dor da indiferença desse alguém que só te en...gana
G           F -F
  Vai aprender
     G                  -G!
A viver e dar valor no amor
           C  -C-[C-G/B]-Am C!
De quem te ama


[G9 = 3X0233] [F7M = X33210] [G/B = X20033]

Clipes