Corra Vagabundo

Charlie Brown Jr.

C#
234
X46664
D#
234
X65343
E
123
022100
Tom: G

  Transcrita por Marcelo Godinho 
Wolff



Intro 1:
  D#    E        C#       D#         
E|--------------------------------
B|----------9---------------------
G|-8-----9-----9--6--8--9--8------
D|------------------------------8-
A|--------------------------------
E|--------------------------------
  E                
E|-------------------------| 
B|------9------------------| 
G|---9-----9--6--8--9--8\--| 
D|-------------------------| 
A|-------------------------| 
E|-------------------------| 



Intro 2:
  D#             E     C#  
E|------------6------------------|
B|----6/8--9-----9-----6/8-------|
G|-8----------------9-------7/8--|
D|-------------------------------|
A|-------------------------------|
E|-------------------------------|

E|      |----------------| 
B|      |----------------| 
G|      |-7-7--7-7---7-7-| 
D|(3x)  |-7-7--7-7---7-7-| 
A|      |-6-6--6-6---6-6-| 
E|      |----------------| 


D#
Corra vagabundo olha a polícia aí!
               E
Porque eu não quero ficar na cadeia
   C#
o dia inteiro a noite inteira
D# o dia passa na doideira e também E passa do ponto C# Chegamos onde deveria ser D# Vagabundo deitado, mão na cabeça, identidade E Não minta não porque, se não vai C# ser pior pra você! D# Corra vagabundo olha a polícia ai! (Riff 1) D# Corra vagabundo olha a polícia ai! (Riff 2) (Intro 2) (Verso) (Refrão)2x (Intro 1) (Riff 2)7x (D# E)8x D# E E|-----------------|-------------| B|-----------------|-------------| G|----8-----------|---9---------|- D|----8-----------|---9---------|- A|----6-----------|---7---------|- E|----------------|--------------| C# E|---------------- B|---------------- G|----6----------- D|----6------------ A|----4------------- E|------------------- Riff2 : E|--------------------| B|--------------------| G|--------------------| D|----------8---------| A|-6--6--7-----7--6---| E|--------------------|
Composição: Colaboração e revisão: