busca

Live And Let Die

Guns N' Roses

Also by Paul and linda Mcartney
Its all here apart from when axl sings 'when ya got a job to do ya got to do it well, ya 
give the other fella hell'
Standard tuning E A D G (the tab also sounds good tuned down half a step-just a suggestion)

come in at 0:30

G----------------------------------|
D----------------------------------|
A---2--3-4-5---2--3-4---2--3-4-5---|
E-3----------3--------3----------3-|

G-0-1-2-----------0-1-2-------5-3-|    play this twice
D-------0-1-2-3-1-------0-1-2-----|
A---------------------------------|
E---------------------------------|

G-------------------|
D-------------------|
A-------------------|
E-3-3-3-3-3-3-3-3-3-|

G------------------------------------------------------|
D------------------------------------------------------|
A-3-3-3-3-3-3-3---------------5-5-5-5-5-5-5-5-5-7-77-8-|
E---------------3-3-3-3-3-3-3--------------------------|

play the following until axl sings 'it didnt matter to ya etc'(the unknown bass part):

G-----
D-----
A-----
E-3-3-

Then:


G-0-1-2-----------0-1-2-------5-3-|    play this twice
D-------0-1-2-3-1-------0-1-2-----|
A---------------------------------|
E---------------------------------|

There's no bass for a bit come back in at 2:14 with:

G----------------------------------|
D----------------------------------|
A---2--3-4-5---2--3-4---2--3-4-5---|
E-3----------3--------3----------3-|

G-0-1-2-----------0-1-2-------5-3-|  play this three times to end song
D-------0-1-2-3-1-------0-1-2-----|  (let 3 ring on third repetition)
A---------------------------------|
E---------------------------------|

Clipes

Cifra Club Pro

Aproveite o Cifra Club com benefícios exclusivos e sem anúncios
Cifra Club Pro
Aproveite o Cifra Club com benefícios exclusivos e sem anúncios