busca

Set Me Free

Guns N' Roses

Tom: A
(tema filme - Hulk)

(guitar 1)
|--------------------------------------------------------------------------
|--x--x-x--x-------9-8--6-6-6--7-------------------------------------------
|--x--x-x--x----------------------5-6-7------------------------------------
|--x--x-x--x---------------------------------------------------------------
|--x--x-x--x---------------------------------------------------------------
|--------------------------------------------------------------------------

(guitar 2)
|----------------------------------------------------------------------------
|----------------------------------------------------------------------------
|-2//////-------------------------------------------------------------
|-2///////-------------------------------------------------------------
|-0///////-------------------------------------------------------------
|----------------------------------------------------------------------------

(riff)
|----------------------------------------------------------------------------
|----------------------------------------------------------------------------
|----------------------------------------------------------------------------
|-2-2--5-5--6-6-----------------8--7--5--2-2---------------------------------
|-0-0--3-3--4-4--5-5--6-6--7-7--6--5--3--0-0---------------------------------
|----------------3-3--4-4--5-5-----------------------------------------------

(refrão)
|----------------------------------------------------------------------------
|-3///--------------------------------------------------------------------
|-2///-3////--5////----------------------------------------------
|-0///-3/////-5///--5////------------------------------------
|-0///-1/////--3////--5////------------------------------------
|-x-----------------------------3////------------------------------------

|----------------------------------------------------------------------------
|-3///--------------------------------------------------------------------
|-2///-3////--8///----------------------------------------------
|-0///-3/////-8///-----------------------------------------------
|-0///-1/////--6///-----------------------------------------------
|-x--------------------------------------------------------------------------
so set me free,....

|----------------------------------------------------------------------------
|-3////------------------------------------------------------------------
|-2////-3/////-10////---9/////-----------------------------
|-0////-3/////-10////---9/////-----------------------------
|-0////-1/////-8////----7/////-----------------------------
|-x--------------------------------------------------------------------------

set me free...

(refrão 2)
|---------------------------------------------------------------------
|---------------------------------------------------------------------
|---7---------------7-------------------------------------------------
|---x---8---10--5---x---8---5---10------------------------------------
|---5---x---x---x---5---x---x---x-------------------------------------
|-------6---8---3-------6---3---8-------------------------------------

|---------------------------------------------------------------------
|---------------------------------------------------------------------
|---7---------------7-------10///-----------------------------------
|---x---8---10--5---x---8---x-----------------------------------------
|---5---x---x---x---5---x---8///-----------------------------------
|-------6---8---3-------6---------------------------------------------

(bridge)
|----------------------------------------------------------------------------
|----------------------------------------------------------------------------
|------------------------------2///----------------------------------------
|-3-----2-----5--5-5-5---3--2--2//----------------------------------------
|-3-----2-----5--5-5-5---3--2--0//----5-5--7-----------------------------
|-1-----0-----3--3-3-3---1--0------------3-3--5-----------------------------

so take me down...

(solo - basicamente acompanhado em A)
|---------------------------------------------------------------------
|---------------------------------------------------------------------
|------2---2---2---2--------------------------------------------------
|------2---2---2---2--------------------------------------------------
|------0---0---0---0--------------------------------------------------
|---------------------------------------------------------------------

(solo - Slash guitarra 1)
|----------------------------11-12--11-12-----------------------------
|-------------------------------------------13--10--------------------
|---11b--10b--9b--8b-------------------------------12-----------------
|---------------------------------------------------------------------
|---------------------------------------------------------------------
|---------------------------------------------------------------------

|-11-12--11-12---------------------------------------------------------------
|----------------13--10------------11b~--15b------13-----13------------------
|-----------------------12--12b~---------------------14-----14---------19b---
|-----------------------------------------------------------------17---------
|----------------------------------------------------------------------------
|----------------------------------------------------------------------------

|------------------------17----------------------19b---20b----22b------------
|-17-17-17--20~~-------17--17---20~~----20b----------------------------------
|----------------19b---------------------------------------------------------
|----------------------------------------------------------------------------
|----------------------------------------------------------------------------
|----------------------------------------------------------------------------

(final)
|----------------------------------------------------------------------------
|----------------------------------------------------------------------------
|----------------------3-3--2------------------------------------------------
|--3-3------3-3--------3-3--2------------------------------------------------
|--3-3------3-3--------1-1--0------------------------------------------------
|--1-1--0h1-1-1--0h1---------------------------------------------------------

You operate and motivate on synthetic fuel
You're mother nature and an atom bomb
As long as you're kept full of pretty bodies
Your little secret will be safe with me

Around again
Insane again
It comes again
And sets me free

(refrão)
So set me free, set me free
'Cause I think you need my soul
Set me free, set me free

You kept a lock and pulled a rise and fall
I'm thinking mama never lies
And everything that you see
But now I did it all, I did a little
I wanna take you down with me

Around again
Insane again
She comes again
And sets me free

(refrão 2x)
So set me free, set me free
'Cause I think you need my soul
Set me free, set me free

(bridge 2x)
So take me down
Take me, down, down, down, down
Take me down, take me down

(refrão 4x)
So set me free, set me free
'Cause I think you need my soul
Set me free, set me free

Clipes