busca

Camilla

Gusttavo Lima

Tom: A
Intro: A  E  F#m  C#m  D  Bm  E  E
E|------5-5-5-5-5-5-5-5-4------------------4-4/5-4--4-4-5-5/7-5-|
B|--4/5-------------------5-----5-5/7--7-7----------------------|
G|--------------------------4/6---------------------------------|
D|--------------------------------------------------------------|
A|--------------------------------------------------------------|
E|--------------------------------------------------------------|

 A            F#m           D  Bm          E
Linda, maravilhosa, beleza rara, muito dengosa
     A            F#m                    D  Bm
Princesa, que amo de paixão, você é pra mim
                 E
muito mais que uma ilusão
 D                                A
Deixa eu te mostrar, deixa acontecer, essa
                             B
paixão gostosa entre eu e você
               D           E       A    E
E Viajar no desejo desse amor pra valer

   A               E           F#m
Camila, você endoidou meu coração,
                    C#m              D
me apaixonei de verdade, to em suas mãos
                Bm                  E
E desse sonho bonito não quero acordar
   A                 E             F#m
Camila, ficar sem você não tem sentido
                C#m               D
sou amor sem paixão, sou caso perdido
            E                 A   E
E por toda vida só quero te amar

( A E F#m C#m D Bm E E )
E|------5-5-5-5-5-5-5-5-4------------------4-4/5-4--4-4-5-5/7-5-|
B|--4/5-------------------5-----5-5/7--7-7----------------------|
G|--------------------------4/6---------------------------------|
D|--------------------------------------------------------------|
A|--------------------------------------------------------------|
E|--------------------------------------------------------------|

 D                                A
Deixa eu te mostrar, deixa acontecer, essa
                             B
paixão gostosa entre eu e você
               D           E       A    E
E Viajar no desejo desse amor pra valer

   A               E           F#m
Camila, você endoidou meu coração,
                    C#m              D
me apaixonei de verdade, to em suas mãos
                Bm                  E
E desse sonho bonito não quero acordar
   A                 E             F#m
Camila, ficar sem você não tem sentido
                C#m               D
sou amor sem paixão, sou caso perdido
            E                 A   E
E por toda vida só quero te amar

   A               E           F#m
Camila, você endoidou meu coração,
                    C#m              D
me apaixonei de verdade, to em suas mãos
                Bm                  E
E desse sonho bonito não quero acordar
   A                 E             F#m
Camila, ficar sem você não tem sentido
                C#m               D
sou amor sem paixão, sou caso perdido
            E                 A
E por toda vida só quero te amar

Clipes

Cifra Club Pro

Aproveite o Cifra Club com benefícios exclusivos e sem anúncios
Cifra Club Pro
Aproveite o Cifra Club com benefícios exclusivos e sem anúncios