busca

Homem de Família

Gusttavo Lima

Tom: E
 Intro: A9 E B9 C#m B9


E|-------------------------
B|-0h2--2------5-----------
G|-2----------4---1--1h2p1-
D|-----------2-------------
A|-0----0---0--------------
E|-------------------------

E|---------------------------
B|-5/7-7-7-9-7-5-------------
G|--x-x-x-x-x-x-4-----4/6/4--
D|-2/4-4-4-6-4-2-------------
A|--------------2-----2/4/2--
E|---------------------------


Primeira Parte: 
 A9     E     B9      C#m B9
 Te olhei, você me olhou 
 A9                      E              B9                     C#m
 Agora minha vida acredita, nunca acreditei em amor a primeira vista  

Pré-refrão: 
      C#m       A9      E
 Até você aparecer do nada 
                    B9                         C#m
 E arrancar minha cachaça com o seu beijo de batom 
               A9        E
 Até você aparecer do nada 
                     B9                         A9   B9
 E quem diria que do carro agora até tirei o meu som  

Refrão: 
 E                                       B9
 E quem me viu se visse hoje não acreditaria 
                                  C#m
 Que o cachaceiro virou homem de família 
                      A9   B9
 Troquei a noite pelo dia 
 E                                       B9
 E quem me viu se visse hoje não acreditaria 
                                 C#m
 Troquei o bar, agora é só sorveteria 
                       A9
 Só eu e ela, quem diria?   

            B9               E           B9  C#m  A9  B9
 Que o cachaceiro virou homem de família 

Solo:

E|---------------------------|
B|---------------------------|
G|---------------------------|
D|-2-0-2-0-2-4-5-6-7-7/9-9-9-|
A|---------------------------|
E|---------------------------|

E|------------------------------
B|------------------------------
G|-9/11-11-11-11-11-11-11-11/14-
D|------------------------------
A|------------------------------
E|------------------------------

E|-------------------------------
B|-------------------------------
G|-14-14-14-14-13----12/14-14-14-
D|----------------14-------------
A|-------------------------------
E|-------------------------------

E|-------------------------------
B|-------------------------------
G|-13-13-13-------------11-11-11-
D|----------11-11-13-14----------
A|-------------------------------
E|-------------------------------

E|--------------|
B|--------------|
G|-11-11--------|
D|-------9/11-9-|
A|--------------|
E|--------------|

Pré-refrão: 
      C#m       A9      E
 Até você aparecer do nada 
                    B9                         C#m
 E arrancar minha cachaça com o seu beijo de batom 
               A9        E
 Até você aparecer do nada 
                     B9                         A9    B9
 E quem diria que do carro agora até tirei o meu som  

  Refrão:
 E                                       B9
 E quem me viu se visse hoje não acreditaria 
                                  C#m
 Que o cachaceiro virou homem de família 
                      A9    B9
 Troquei a noite pelo dia 
 E                                       B9
 E quem me viu se visse hoje não acreditaria 
                                 C#m
 Troquei o bar, agora é só sorveteria 
                       A9
 Só eu e ela, quem diria?   

          B9                E
 Que o cachaceiro virou homem de família 
               
              B9
  não acreditaria 
                                  C#m
 Que o cachaceiro virou homem de família 
                      A9    B9
 Troquei a noite pelo dia 
 E                                       B9
 E quem me viu se visse hoje não acreditaria 
                                 C#m
 Troquei o bar, agora é só sorveteria 
                       A9
 Só eu e ela, quem diria?  
              B9               E           B9   C#m
 Que o cachaceiro virou homem de família 
                       A9
 Só eu e ela, quem diria?  
              B9               A9       B9       A9   B9    E
 Que o cachaceiro virou homem de família        de família


(Frase 1)
                    C#m
com o seu beijo de batom

D|-2/4-4-4h6-6-6-6-|

(Frase 2)
       E
 do nada

G|-4/6-4---|
D|-------6-|

Clipes

Cifra Club Pro

Aproveite o Cifra Club com benefícios exclusivos e sem anúncios
Cifra Club Pro
Aproveite o Cifra Club com benefícios exclusivos e sem anúncios