Até Você Voltar

Henrique e Juliano

Am
123
X02210
Bm
234
X24432
C9
1234
X32033
Cm
234
X35543
D
123
XX0232
D9/F#
123
2X0230
Em
12
022000
Em7
1234
022033
G
1234
320033
Tom: G
Intro: G

Solo Intro:

#1t1##1t2#E|----------------------------------------------------|
B|-4/6-6-6-6-6-6-6p4-3--------------------------------|
G|---------------------5-3-3/5-3----------------------|
D|----------------------------------------------------|
A|----------------------------------------------------|
E|----------------------------------------------------|#/1t2##/1t1#

Primeira Parte:

   G
Aqui sentado nessa mesa
                 D9/F#
Só o copo de cerveja é minha companhia
                       Em7
E essa casa está tão cheia
                           C9
E parece vazia sem você comigo

   G
E hoje está fazendo um ano
                  D9/F#
Aqui no meu calendário

Ainda está marcando
               Em7
O dia e o mês,     foi a primeira vez

E o que me prometeu
C9
   Será que se esqueceu

Pré-refrão:

    Em
De todos nossos planos

Nossos filhos, nosso apartamento
Bm
   Da nossa lua de mel

Do nosso casamento
Am
   Como pude acreditar
               C9
Nesse seu juramento
                 Cm
E agora estou sozinho outra vez

Refrão:

G
  De copo sempre cheio, coração vazio
D
  Tô me tornando um cara
                 Em
Solitário e frio
                                    C9
Vai ser difícil eu me apaixonar de novo
     D
E a culpa é sua

G                               D
  Antes embriagado do que iludido

Acreditar no amor
                    Em
Já não faz mais sentido
                                C9
Eu vou continuar nessa vida bandida
  D          G
Até você voltar

Base Solo Principal: G  D  Am  C9

Solo Principal:

Parte 1

#2t1##2t2#E|----------------------------------------------------|
B|-4/6-6-6-6-6-6-6p4-3--------------------------------|
G|---------------------5-5p3-3/5----------------------|
D|----------------------------------------------------|
A|----------------------------------------------------|
E|----------------------------------------------------|#/2t2##/2t1#

Parte 2

#3t1##3t2#E|---------------6-6-6p5------------------------------|
B|-4/6-6-6-6-8-6---------6-8--------------------------|
G|----------------------------------------------------|
D|----------------------------------------------------|
A|----------------------------------------------------|
E|----------------------------------------------------|#/3t2##/3t1#

Parte 3

#4t1##4t2#E|----------------------------------------------------|
B|-10-10-10-8-6-6h8--8-8-8-6-4-4----------------------|
G|-10-10-10-8-7-7h8--8-8-8-7-5-3----------------------|
D|----------------------------------------------------|
A|----------------------------------------------------|
E|----------------------------------------------------|#/4t2##/4t1#

Parte 4

#5t1##5t2#E|----------------------------------------------------|
B|---------4/6-4-3-1h3-3------------------------------|
G|---2-3-5-5/7-5-3-2h3-3------------------------------|
D|-5--------------------------------------------------|
A|----------------------------------------------------|
E|----------------------------------------------------|#/5t2##/5t1#

Pré-refrão:

    Em
De todos nossos planos

Nossos filhos, nosso apartamento
Bm
   Da nossa lua de mel

Do nosso casamento
Am
   Como pude acreditar
               C9
Nesse seu juramento
                 Cm          D
E agora estou sozinho outra vez

Refrão:

G
  De copo sempre cheio, coração vazio
D
  Tô me tornando um cara
                 Em
Solitário e frio
                                    C9
Vai ser difícil eu me apaixonar de novo
     D
E a culpa é sua

G                               D
  Antes embriagado do que iludido

Acreditar no amor
                    Em
Já não faz mais sentido
                                C9
Eu vou continuar nessa vida bandida
  D          G
Até você voltar

G
  De copo sempre cheio, coração vazio
D
  Tô me tornando um cara
                 Em
Solitário e frio
                                    C9
Vai ser difícil eu me apaixonar de novo
     D
E a culpa é sua

G                               D
  Antes embriagado do que iludido

Acreditar no amor
                    Em
Já não faz mais sentido
                                C9
Eu vou continuar nessa vida bandida
  D          G
Até você voltar

Final: (G  D  Am  C9)

             G
Até você voltar

Solo Final:

Parte 1

#6t1##6t2#E|----------------------------------------------------|
B|-4/6-6-6-6-6-6-6p4-3--------------------------------|
G|---------------------5-5p3-3/5----------------------|
D|----------------------------------------------------|
A|----------------------------------------------------|
E|----------------------------------------------------|#/6t2##/6t1#

Parte 2

#7t1##7t2#E|---------------6-6-6p5------------------------------|
B|-4/6-6-6-6-8-6---------6-8--------------------------|
G|----------------------------------------------------|
D|----------------------------------------------------|
A|----------------------------------------------------|
E|----------------------------------------------------|#/7t2##/7t1#

Parte 3

#8t1##8t2#E|----------------------------------------------------|
B|-10-10-10-8-6-6h8--8-8-8-6-4-4----------------------|
G|-10-10-10-8-7-7h8--8-8-8-7-5-3----------------------|
D|----------------------------------------------------|
A|----------------------------------------------------|
E|----------------------------------------------------|#/8t2##/8t1#
Composição: Juliano Tchula / Marília MendonçaColaboração e revisão: Leandro SandimItalo RodriguesLucas MedeirosGabriele mais 4
Videoaula Até Você Voltar (aula de violão completa)