Cidade Vizinha

Henrique e Juliano

Bm7(11)
123
X20230
C9
34
X35533
D
123
XX0232
D4
123
XX0233
D9
12
XX0230
Em7
123
022030
G
123
320003
G11+
234
355633
G5
134
355XXX
G6
1234
3X243X
Tom: G
[Intro] G  G11+  G5  G6
        D  D4  D  D9
        G  G11+  G5  G6
        D  D4  D  D9


[Dedilhado]

   G        G11+     G5       
E|----------------------------0---
B|-0-----0--2-----2--3-----3------
G|-----0--------0--------0--------
D|---0--------0--------0--------0-
A|--------------------------------
E|-3--------3--------3--------3---
  G6
E|--0-------| 
B|----------| 
G|0---------| 
D|----------| 
A|----------| 
E|----------| 



   D          D4         D        
E|-0h2-----2--2h3-----3--2-----2--
B|-------3----------3--------3----
G|-----2----------2--------2------
D|-0----------0----------0--------
A|--------------------------------
E|--------------------------------
  D9
E|0---------| 
B|----3-2---| 
G|--2-------| 
D|0---------| 
A|----------| 
E|----------| 



   G        G11+     G5       
E|----------------------------0---
B|-0-----0--2-----2--3-----3------
G|-----0--------0--------0--------
D|---0--------0--------0--------0-
A|--------------------------------
E|-3--------3--------3--------3---
  G6
E|--0-------| 
B|----------| 
G|0---------| 
D|----------| 
A|----------| 
E|----------| 



   D          D4         D        
E|-0h2-----2--2h3-----3--2-----2--
B|-------3----------3--------3----
G|-----2----------2--------2------
D|-0----------0----------0--------
A|--------------------------------
E|--------------------------------
  D9
E|0---------| 
B|----3-2---| 
G|--2-------| 
D|0---------| 
A|----------| 
E|----------| 


[Solo]


E|---------------------------
B|---------------------------
G|-2/4--4/6--6/7--7/9--9/11--
D|---------------------------
A|---------------------------
E|---------------------------

E|---------------| 
B|---------------| 
G|9/11\9\7-------| 
D|---------------| 
A|---------------| 
E|---------------| 



E|--------------------------------
B|--------------------------------
G|-2/4--4/6--6/7--2/4--2--7\------
D|--------------------------------
A|----------------------------4/5-
E|--------------------------------


[Primeira Parte]


   G        G11+     G5       
E|----------------------------0---
B|-0-----0--2-----2--3-----3------
G|-----0--------0--------0--------
D|---0--------0--------0--------0-
A|--------------------------------
E|-3--------3--------3--------3---
  G6
E|--0-------| 
B|----------| 
G|0---------| 
D|----------| 
A|----------| 
E|----------| 



   D          D4         D        
E|-0h2-----2--2h3-----3--2-----2--
B|-------3----------3--------3----
G|-----2----------2--------2------
D|-0----------0----------0--------
A|--------------------------------
E|--------------------------------
  D9
E|0---------| 
B|----3-2---| 
G|--2-------| 
D|0---------| 
A|----------| 
E|----------| 



   G        G11+     G5       
E|----------------------------0---
B|-0-----0--2-----2--3-----3------
G|-----0--------0--------0--------
D|---0--------0--------0--------0-
A|--------------------------------
E|-3--------3--------3--------3---
  G6
E|--0-------| 
B|----------| 
G|0---------| 
D|----------| 
A|----------| 
E|----------| 



   D          D4         D        
E|-0h2-----2--2h3-----3--2-----2--
B|-------3----------3--------3----
G|-----2----------2--------2------
D|-0----------0----------0--------
A|--------------------------------
E|--------------------------------
  D9
E|0---------| 
B|----------| 
G|----------| 
D|0---------| 
A|----------| 
E|----------| 


 G   G11+
Seis
G5                  G6           
Essa é a hora que ela vai sair 
   D    D4  D  D9
pra correr
   G   G11+
Depois
 G5               G6             
Vai procurar alguma coisa leve 
D      D4  D  D9
pra comer

[Pré-Refrão]

C9 Sua cabeça anda, sem ter tempo pra pensar Bm7(11) Que antes era a gente E hoje é vida singular G G11+ G5 E agora? Pra quem tá solteiro D D4 D D9 Cidade grande é foda [Refrão] Em7 Eu sei que ela ta na cidade vizinha G D Mas eu preciso da boca dela na minha Ai ai ai ai Em7 Talvez essa hora, saiu do banho G Tá se arrumando pra sair com as D amigas Ai ai ai ai Em7 Tomara que saia, dê tudo errado G E volte mais cedo, sem ninguém do D seu lado Ô o o Em7 Tomara que saia, dê tudo errado G D E sinta saudades, aqui do meu D4 D quarto ( G G11+ G5 G6 ) ( D D4 D D9 ) G G11+ G5 E|----------------------------0--- B|-0-----0--2-----2--3-----3------ G|-----0--------0--------0-------- D|---0--------0--------0--------0- A|-------------------------------- E|-3--------3--------3--------3--- G6 E|--0-------| B|----------| G|0---------| D|----------| A|----------| E|----------| D D4 D E|-0h2-----2--2h3-----3--2-----2-- B|-------3----------3--------3---- G|-----2----------2--------2------ D|-0----------0----------0-------- A|-------------------------------- E|-------------------------------- D9 E|0---------| B|----3-2---| G|--2-------| D|0---------| A|----------| E|----------| [Pré-Refrão] C9 Sua cabeça anda, sem ter tempo pra pensar Bm7(11) Que antes era a gente E hoje é vida singular G G11+ G5 E agora? Pra quem tá solteiro D D4 D D9 Cidade grande é foda [Refrão] Em7 Eu sei que ela ta na cidade vizinha G D Mas eu preciso da boca dela na minha Ai ai ai ai Em7 Talvez essa hora, saiu do banho G Tá se arrumando pra sair com as D amigas Ai ai ai ai Em7 Tomara que saia, dê tudo errado G E volte mais cedo, sem ninguém do D seu lado Ô o o Em7 Tomara que saia, dê tudo errado G D E sinta saudades, aqui do meu D4 D quarto
Composição: Cristhyan Ribeiro / Douglas Mello / Flávinho Tinto / Nando MarxColaboração e revisão: Thiago AlmeidaLucas Freire