Cidade Vizinha

Henrique e Juliano

Bm7(11)
123
X20230
C9
34
X35533
D
123
XX0232
D4
123
XX0233
D9
12
XX0230
Em7
123
022030
G
123
320003
G11+
234
355633
G5
134
355XXX
G6
1234
3X243X
Tom: G
[Intro] G  G11+  G5  G6 
        D  D4  D  D9
        G  G11+  G5  G6 
        D  D4  D  D9

#1t1#[Dedilhado]

   G        G11+     G5       G6
#1t2#E|----------------------------0-----0-------|
B|-0-----0--2-----2--3-----3----------------|
G|-----0--------0--------0--------0---------|
D|---0--------0--------0--------0-----------|
A|------------------------------------------|
E|-3--------3--------3--------3-------------|#/1t2##/1t1#

#2t1#   D          D4         D        D9
#2t2#E|-0h2-----2--2h3-----3--2-----2--0---------|
B|-------3----------3--------3--------3-2---|
G|-----2----------2--------2--------2-------|
D|-0----------0----------0--------0---------|
A|------------------------------------------|
E|------------------------------------------|#/2t2##/2t1#

#3t1#   G        G11+     G5       G6
#3t2#E|----------------------------0-----0-------|
B|-0-----0--2-----2--3-----3----------------|
G|-----0--------0--------0--------0---------|
D|---0--------0--------0--------0-----------|
A|------------------------------------------|
E|-3--------3--------3--------3-------------|#/3t2##/3t1#

#4t1#   D          D4         D        D9
#4t2#E|-0h2-----2--2h3-----3--2-----2--0---------|
B|-------3----------3--------3--------3-2---|
G|-----2----------2--------2--------2-------|
D|-0----------0----------0--------0---------|
A|------------------------------------------|
E|------------------------------------------|#/4t2##/4t1#

[Solo]

#5t1##5t2#E|------------------------------------------|
B|------------------------------------------|
G|-2/4--4/6--6/7--7/9--9/11--9/11\9\7-------|
D|------------------------------------------|
A|------------------------------------------|
E|------------------------------------------|#/5t2##/5t1#

#6t1##6t2#E|------------------------------------------|
B|------------------------------------------|
G|-2/4--4/6--6/7--2/4--2--7\----------------|
D|------------------------------------------|
A|----------------------------4/5-----------|
E|------------------------------------------|#/6t2##/6t1#

[Primeira Parte]

#7t1#   G        G11+     G5       G6
#7t2#E|----------------------------0-----0-------|
B|-0-----0--2-----2--3-----3----------------|
G|-----0--------0--------0--------0---------|
D|---0--------0--------0--------0-----------|
A|------------------------------------------|
E|-3--------3--------3--------3-------------|#/7t2##/7t1#

#8t1#   D          D4         D        D9
#8t2#E|-0h2-----2--2h3-----3--2-----2--0---------|
B|-------3----------3--------3--------3-2---|
G|-----2----------2--------2--------2-------|
D|-0----------0----------0--------0---------|
A|------------------------------------------|
E|------------------------------------------|#/8t2##/8t1#

#9t1#   G        G11+     G5       G6
#9t2#E|----------------------------0-----0-------|
B|-0-----0--2-----2--3-----3----------------|
G|-----0--------0--------0--------0---------|
D|---0--------0--------0--------0-----------|
A|------------------------------------------|
E|-3--------3--------3--------3-------------|#/9t2##/9t1#

#10t1#   D          D4         D        D9
#10t2#E|-0h2-----2--2h3-----3--2-----2--0---------|
B|-------3----------3--------3--------------|
G|-----2----------2--------2----------------|
D|-0----------0----------0--------0---------|
A|------------------------------------------|
E|------------------------------------------|#/10t2##/10t1#

 G   G11+
Seis
G5                  G6              D    D4  D  D9
Essa é a hora que ela vai sair pra correr
   G   G11+
Depois
 G5               G6             D      D4  D  D9
Vai procurar alguma coisa leve pra comer

[Pré-Refrão]

  C9                   
Sua cabeça anda, sem ter tempo pra pensar
    Bm7(11)
Que antes era a gente       
E hoje é vida singular
    G   G11+  G5
E agora?

Pra quem tá solteiro
         D           D4  D  D9
Cidade grande é foda

[Refrão]

    Em7                   
Eu sei que ela ta na cidade vizinha
 G                              D   
Mas eu preciso da boca dela na minha
Ai ai ai ai
    Em7
Talvez essa hora, saiu do banho
 G                                D
Tá se arrumando pra sair com as amigas
Ai ai ai ai

   Em7  
Tomara que saia, dê tudo errado
   G                                   D
E volte mais cedo, sem ninguém do seu lado
Ô o o

   Em7            
Tomara que saia, dê tudo errado
   G                            D   D4  D  
E sinta saudades, aqui do meu quarto

( G  G11+  G5  G6 )
( D  D4  D  D9 )

#11t1#   G        G11+     G5       G6
#11t2#E|----------------------------0-----0-------|
B|-0-----0--2-----2--3-----3----------------|
G|-----0--------0--------0--------0---------|
D|---0--------0--------0--------0-----------|
A|------------------------------------------|
E|-3--------3--------3--------3-------------|#/11t2##/11t1#

#12t1#   D          D4         D        D9
#12t2#E|-0h2-----2--2h3-----3--2-----2--0---------|
B|-------3----------3--------3--------3-2---|
G|-----2----------2--------2--------2-------|
D|-0----------0----------0--------0---------|
A|------------------------------------------|
E|------------------------------------------|#/12t2##/12t1#

[Pré-Refrão]

  C9                   
Sua cabeça anda, sem ter tempo pra pensar
    Bm7(11)
Que antes era a gente       
E hoje é vida singular
    G   G11+  G5
E agora?

Pra quem tá solteiro
         D           D4  D  D9
Cidade grande é foda

[Refrão]

    Em7                   
Eu sei que ela ta na cidade vizinha
 G                              D   
Mas eu preciso da boca dela na minha
Ai ai ai ai
    Em7
Talvez essa hora, saiu do banho
 G                                D
Tá se arrumando pra sair com as amigas
Ai ai ai ai

   Em7  
Tomara que saia, dê tudo errado
   G                                   D
E volte mais cedo, sem ninguém do seu lado
Ô o o

   Em7            
Tomara que saia, dê tudo errado
   G                            D   D4  D  
E sinta saudades, aqui do meu quarto
Composição: Cristhyan Ribeiro / Douglas Mello / Flávinho Tinto / Nando MarxColaboração e revisão: Thiago AlmeidaLucas Freire