Mudando de Assunto

Henrique e Juliano

A
123
X02220
A9
12
X02200
B
234
X24442
B7
1234
X21202
B9
34
X24422
C#m
234
X46654
E
123
022100
F#m
34
244222
F#m7(11)
123
2X220X
G#m
34
466444
Tom: G
[Intro] E  B7  C#m  G#m  A  E  B7
        F#m  A9  E

Parte 1 de 3


     E        B7       C#m      
E|-------0--------2---------------
B|-----0--------0----------5--4---
G|---1--------2----------6--------
D|---------------------6--------6-
A|----------2--------4------------
E|-0--------------------------4---
  F#m
E|----------| 
B|4---------| 
G|--4-------| 
D|----6-----| 
A|----------| 
E|----------| 


Parte 2 de 3


     A          E        B7
E|---------0------0-------------2-
B|-----0h2----0-----0------0----0-
G|--------------1--------2---2--2-
D|---2--------------------------1-
A|-0-------------------2----------
E|------------0-------------------


Parte 3 de 3


     F#m      A9  E
E|----------0------------0--------
B|-----2----0-------0----0--------
G|-------2--2-----1---1--1--------
D|---4------2------------2--------
A|----------0---------------------
E|-2------------0-----------------


[Primeira Parte]


     E        B7       C#m      
E|-------0--------2---------------
B|-----0--------0----------5--4---
G|---1--------2----------6--------
D|---------------------6--------6-
A|----------2--------4------------
E|-0--------------------------4---
  G#m
E|----------| 
B|4---------| 
G|--4-------| 
D|----6-----| 
A|----------| 
E|----------| 



     A          E        B7
E|---------0------0-------------2-
B|-----0h2----0-----0------0----0-
G|--------------1--------2---2--2-
D|---2--------------------------1-
A|-0-------------------2----------
E|------------0-------------------



E                    B7    
  Quer saber qual seria o meu 
        C#m
pesadelo
             G#m            A
Sem nenhuma dúvida seria o medo
           E                    B7
Seria acordar, não estar com você

E                   B7
  Chega a dar tremedeira
              C#m
Um mal na barriga
            G#m                
Quem ama demais não suporta uma 
   A
briga
         E                   B7
Ciúme demais faz a gente sofrer

[Pré-Refrão]

Parte 1 de 3


    F#m7(11)  A9           E
E|-----0----------0--------------
B|-------0----------0--------0---
G|---2----------2-----2----1---1-
D|------------2------------------
A|----------0--------------------
E|-2---------------------0-------

E|0----------| 
B|--0--------| 
G|----1------| 
D|------2----| 
A|-----------| 
E|-----------| 


Parte 2 de 3


    F#m7(11)  A9           E
E|-----0-------------------------
B|-------0--------0h2-0------0---
G|---2----------2----------1---1-
D|------------2------------------
A|----------0--------------------
E|-2---------------------0-------

E|0----------| 
B|--0--------| 
G|----1------| 
D|------2----| 
A|-----------| 
E|-----------| 


Parte 3 de 3

F#m7(11) A9 B9 E|-----0------------------------- B|-------0--------0h2-0---------- G|---2----------2------------4--- D|------------2------------4---4- A|----------0------------2------- E|-2----------------------------- E|2----------| B|2----------| G|4----------| D|4----------| A|2----------| E|-----------| F#m7(11) A9 Mudando de assunto E Cê tá tão bonita F#m7(11) A9 Que cheiro gostoso E Que vem de você F#m7(11) A9 E se eu te contar E Você nem acredita F#m7(11) A9 Se eu tava brigando B9 Eu nem lembro o porquê [Refrão] E B C#m E|-0-----0------------------------ B|-----0----4-----4--5-----5--4--- G|---1----------4--------6-------- D|------------4--------6--------6- A|----------2--------4------------ E|-0--------------------------4--- G#m E|----------| B|--4-------| G|4---------| D|----------| A|----------| E|----------| A E B9 E|---------------------------2--- B|-2-----2--0-----0------------2- G|-----2--------1--------4------- D|---2--------2--------4---4----- A|-0-----------------2----------- E|----------0-------------------- E|-----------| B|-----------| G|4----------| D|--4--------| A|-----------| E|-----------| E B C#m E|-0-----0------------------------ B|-----0----4-----4--5-----5--4--- G|---1----------4--------6-------- D|------------4--------6--------6- A|----------2--------4------------ E|-0--------------------------4--- G#m E|----------| B|--4-------| G|4---------| D|----------| A|----------| E|----------| A B9 E E|----------2-----------4--------- B|-2-----2--2-----------5--------- G|-----2----4---------4-4--------- D|---2------4-------6------------- A|-0--------2-----7--------------- E|-------------------------------- E B C#m Pra que brigar se o amor é isso G#m A É uma espécie de um vício E B9 Mil maneiras de querer E B C#m Pra que brigar, chorar, ir embora G#m A Eu bem sei que nessa hora B9 E Vai me dar vontade de você [Pré-Refrão] F#m7(11) A9 Mudando de assunto E Cê tá tão bonita F#m7(11) A9 Que cheiro gostoso E Que vem de você F#m7(11) A9 E se eu te contar E Você nem acredita F#m7(11) A9 Se eu tava brigando B9 Eu nem lembro o porquê [Refrão] E B C#m Pra que brigar se o amor é isso G#m A É uma espécie de um vício E B9 Mil maneiras de querer E B C#m Pra que brigar, chorar, ir embora G#m A Eu bem sei que nessa hora B9 E B9 Vai me dar vontade de você E B C#m Pra que brigar se o amor é isso G#m A É uma espécie de um vício E B9 Mil maneiras de querer E B C#m Pra que brigar, chorar, ir embora G#m A Eu bem sei que nessa hora B9 E Vai me dar vontade de você [Final] F#m7(11) A9 E E|-------0------------0---0------- B|-----0----------0h2-----0------- G|---2----------2---------1------- D|------------2-----------2------- A|----------0-------------2------- E|-2----------------------0------- F#m7(11) A9 Mudando de assunto E Cê tá tão bonita
Composição: Ivan Medeiros / Marcelo Melo / Théo / Viviane AbreuColaboração e revisão: Gabriel Silvajulia lacerdaJoão Netogabriel luize mais 1
Videoaula Mudando de Assunto (violão completa)