Mudando de Assunto

Henrique e Juliano

A
123
X02220
A9
12
X02200
B
234
X24442
B7
1234
X21202
B9
34
X24422
C#m
234
X46654
E
123
022100
F#m
34
244222
F#m7(11)
123
2X220X
G#m
34
466444
Tom: G
[Intro] E  B7  C#m  G#m  A  E  B7
        F#m  A9  E

Parte 1 de 3

#1t1#     E        B7       C#m      F#m
#1t2#E|-------0--------2-------------------------|
B|-----0--------0----------5--4---4---------|
G|---1--------2----------6----------4-------|
D|---------------------6--------6-----6-----|
A|----------2--------4----------------------|
E|-0--------------------------4-------------|#/1t2##/1t1#

Parte 2 de 3

#2t1#     A          E        B7
#2t2#E|---------0------0-------------2-----------|
B|-----0h2----0-----0------0----0-----------|
G|--------------1--------2---2--2-----------|
D|---2--------------------------1-----------|
A|-0-------------------2--------------------|
E|------------0-----------------------------|#/2t2##/2t1#

Parte 3 de 3

#3t1#     F#m      A9  E
#3t2#E|----------0------------0------------------|
B|-----2----0-------0----0------------------|
G|-------2--2-----1---1--1------------------|
D|---4------2------------2------------------|
A|----------0-------------------------------|
E|-2------------0---------------------------|#/3t2##/3t1#

[Primeira Parte]

#4t1#     E        B7       C#m      G#m
#4t2#E|-------0--------2-------------------------|
B|-----0--------0----------5--4---4---------|
G|---1--------2----------6----------4-------|
D|---------------------6--------6-----6-----|
A|----------2--------4----------------------|
E|-0--------------------------4-------------|#/4t2##/4t1#

#5t1#     A          E        B7
#5t2#E|---------0------0-------------2-----------|
B|-----0h2----0-----0------0----0-----------|
G|--------------1--------2---2--2-----------|
D|---2--------------------------1-----------|
A|-0-------------------2--------------------|
E|------------0-----------------------------|#/5t2##/5t1#


E                    B7            C#m
  Quer saber qual seria o meu pesadelo
             G#m            A
Sem nenhuma dúvida seria o medo
           E                    B7
Seria acordar, não estar com você

E                   B7
  Chega a dar tremedeira
              C#m
Um mal na barriga
            G#m                   A
Quem ama demais não suporta uma briga
         E                   B7
Ciúme demais faz a gente sofrer

[Pré-Refrão]

Parte 1 de 3

#6t1#    F#m7(11)  A9           E
#6t2#E|-----0----------0--------------0----------|
B|-------0----------0--------0-----0--------|
G|---2----------2-----2----1---1-----1------|
D|------------2------------------------2----|
A|----------0-------------------------------|
E|-2---------------------0------------------|#/6t2##/6t1#

Parte 2 de 3

#7t1#    F#m7(11)  A9           E
#7t2#E|-----0-------------------------0----------|
B|-------0--------0h2-0------0-----0--------|
G|---2----------2----------1---1-----1------|
D|------------2------------------------2----|
A|----------0-------------------------------|
E|-2---------------------0------------------|#/7t2##/7t1#

Parte 3 de 3

#8t1#    F#m7(11)  A9           B9
#8t2#E|-----0-------------------------2----------|
B|-------0--------0h2-0----------2----------|
G|---2----------2------------4---4----------|
D|------------2------------4---4-4----------|
A|----------0------------2-------2----------|
E|-2----------------------------------------|#/8t2##/8t1#

F#m7(11)               A9
         Mudando de assunto 
       E
Cê tá tão bonita
F#m7(11)                A9
         Que cheiro gostoso
              E
Que vem de você
F#m7(11)                A9
         E se eu te contar 
         E
Você nem acredita
F#m7(11)                A9
         Se eu tava brigando 
                     B9
Eu nem lembro o porquê

[Refrão]


#9t1#     E        B       C#m       G#m
#9t2#E|-0-----0----------------------------------|
B|-----0----4-----4--5-----5--4-----4-------|
G|---1----------4--------6--------4---------|
D|------------4--------6--------6-----------|
A|----------2--------4----------------------|
E|-0--------------------------4-------------|#/9t2##/9t1#

#10t1#     A        E        B9
#10t2#E|---------------------------2--------------|
B|-2-----2--0-----0------------2------------|
G|-----2--------1--------4-------4----------|
D|---2--------2--------4---4-------4--------|
A|-0-----------------2----------------------|
E|----------0-------------------------------|#/10t2##/10t1#

#11t1#    E        B       C#m       G#m
#11t2#E|-0-----0----------------------------------|
B|-----0----4-----4--5-----5--4-----4-------|
G|---1----------4--------6--------4---------|
D|------------4--------6--------6-----------|
A|----------2--------4----------------------|
E|-0--------------------------4-------------|#/11t2##/11t1#

#12t1#     A        B9    E
#12t2#E|----------2-----------4------------------|
B|-2-----2--2-----------5------------------|
G|-----2----4---------4-4------------------|
D|---2------4-------6----------------------|
A|-0--------2-----7------------------------|
E|-----------------------------------------|#/12t2##/12t1#

      E     B              C#m
Pra que brigar se o amor é isso
         G#m         A
É uma espécie de um vício
       E            B9
Mil maneiras de querer
      E     B                 C#m
Pra que brigar, chorar, ir embora
        G#m           A
Eu bem sei que nessa hora
        B9          E
Vai me dar vontade de você

[Pré-Refrão]

F#m7(11)               A9
         Mudando de assunto 
       E
Cê tá tão bonita
F#m7(11)                A9
         Que cheiro gostoso
              E
Que vem de você
F#m7(11)                A9
         E se eu te contar 
         E
Você nem acredita
F#m7(11)                A9
         Se eu tava brigando 
                     B9
Eu nem lembro o porquê

[Refrão]

      E     B              C#m
Pra que brigar se o amor é isso
         G#m         A
É uma espécie de um vício
       E            B9
Mil maneiras de querer
      E     B                 C#m
Pra que brigar, chorar, ir embora
        G#m           A
Eu bem sei que nessa hora
        B9          E      B9
Vai me dar vontade de você

      E     B              C#m
Pra que brigar se o amor é isso
         G#m         A
É uma espécie de um vício
       E            B9
Mil maneiras de querer
      E     B                 C#m
Pra que brigar, chorar, ir embora
        G#m           A
Eu bem sei que nessa hora
        B9          E
Vai me dar vontade de você

[Final]

#13t1#    F#m7(11)  A9            E
#13t2#E|-------0------------0---0-----------------|
B|-----0----------0h2-----0-----------------|
G|---2----------2---------1-----------------|
D|------------2-----------2-----------------|
A|----------0-------------2-----------------|
E|-2----------------------0-----------------|#/13t2##/13t1#

F#m7(11)               A9
         Mudando de assunto 
       E
Cê tá tão bonita
Composição: Ivan Medeiros / Marcelo Melo / Théo / Viviane AbreuColaboração e revisão: Gabriel Silvajulia lacerdaJoão Netogabriel luize mais 1
Videoaula Mudando de Assunto (violão completa)