busca

Ele Quer Ser Eu

Henrique e Juliano

Tom: Bb (forma dos acordes no tom de G) Capotraste na 3ª casa
Intro 2x: Em  D9  Am7  C9

Solo Intro:
     Em       D9        Am7  C9
E|------------------------------------------------------|
B|------------------------------------------------------|
G|------------------------------------------------------|
D|-5-5--7/8-7h8p7---------------------------------------|
A|----------------8-8/10--------------------------------|
E|------------------------------------------------------|

Primeira Parte:
Em                    D9
   Você vive me procurando nele
          Am7
E hoje está com ele
       C9                      Em
Sua cabeça está em outro lugar
                        D9
   Até o seu sorriso é de mentira
       Am7                                 C9
Olha que ironia, você tá querendo me comparar

Pré-Refrão:
                    D9                      Em
   Quer ensinar pra ele o que aprendeu comigo
                                 C9
O gosto pela roupa, a cor do vestido
                D9                      Em
Duvido que ele foi além do que a gente foi
                                       Am7
Eu fico imaginando vocês dois, mas eu duvido
                    C9                     D9
Duvido que ele te amou mais do que eu te amei

Refrão:
G
Ele também usa preto
               D9
Tem os meus defeitos

Gosta de cabelo cacheado
 Am7
Sei que ele quer ser eu
              Em
Ele é quase eu
                       D9
   Mas não é ele quem você quer ter do lado

G
Ele também usa preto
               D9
Tem os meus defeitos

Gosta de cabelo cacheado
Am7
Ele nunca vai ser eu
                 Em
Não deixa ele saber
     D9                 Em   D9   Am7   C9
Que ainda ama o seu passado

( Em  D9 )

Solo:
Parte 1
     Em       D9        Am7  C9
E|------------------------------------------------------|
B|------------------------------------------------------|
G|------------------------------------------------------|
D|-5-5--7/8-7h8p7---------------------------------------|
A|----------------8-8/10--------------------------------|
E|------------------------------------------------------|

Parte 2
     Em       D9
E|------------------------------------------------------|
B|-------------------------6-8--------------------------|
G|---------------------5-7------------------------------|
D|-5-5--7/8-7h8p7--5-8----------------------------------|
A|------------------------------------------------------|
E|------------------------------------------------------|

Repete Pré-Refrão:
C9                  D9                      Em
   Quer ensinar pra ele o que aprendeu comigo
                                 C9
O gosto pela roupa, a cor do vestido
                D9                      Em
Duvido que ele foi além do que a gente foi
                                      Am7
Eu fico imaginando vocês dois, mas eu duvido
                    C9                     D9
Duvido que ele te amou mais do que eu te amei

Refrão:
G
Ele também usa preto
               D9
Tem os meus defeitos

Gosta de cabelo cacheado
 Am7
Sei que ele quer ser eu
              Em
Ele é quase eu
                       D9
   Mas não é ele quem você quer ter do lado

G
Ele também usa preto
               D9
Tem os meus defeitos

Gosta de cabelo cacheado
Am7
Ele nunca vai ser eu
                 Em
Não deixa ele saber
     D9                 Em   D9
Que ainda ama o seu passado

Passagem:
     Em           D9
E|------------------------------------------------------|
B|------------------------------------------------------|
G|---------------------5-7-8----------------------------|
D|-5-5--7h8p7\5-7--8-8----------------------------------|
A|------------------------------------------------------|
E|------------------------------------------------------|

Am7
Ele nunca vai ser eu
                 Em
Não deixa ele saber
     D9                 G
Que ainda ama o seu passado

Clipes

Cifra Club Pro

Aproveite o Cifra Club com benefícios exclusivos e sem anúncios
Cifra Club Pro
Aproveite o Cifra Club com benefícios exclusivos e sem anúncios