busca

Memória

João Bosco e Vinícius

Tom: D
Intro: D  F#7  Bm  Bm7  G  A  D  A

E|-----------------------------------------------------------------------|
B|--------------------------------------------------3-5-5/8-7------------|
G|--------------3------------4------------6---3-4-6----------------------|
D|----4-4-4-3-4----4-4-4-3-4----4-4-4-3-4--------------------------------|
A|-----------------------------------------------------------------------|
E|-----------------------------------------------------------------------|

E|-----------------------------------------------------------------------|
B|--7-7-7-7-8-7-5---5-5-5-5-7-5-3-------3-3---3---3-------3/5-3----------|
G|----------------------------------4-6-----6---6---6-4-6----------------|
D|-----------------------------------------------------------------------|
A|-----------------------------------------------------------------------|
E|-----------------------------------------------------------------------|

   D                F#7             Bm          Bm7
A minha memória reprisa você tal qual uma tela
       G                  A                   D
Sou a chama da vela que quase se apaga com o sopro do ar
   F#7                                    Bm       Bm7
E volto ao passado reviros guardados um tanto inseguro
      G                    A              D           A
Por saber de verdade que neste presente você não está

  D               F#7                 Bm        Bm7
Apago as luzes e deixo a porta da frente encostada
          G                  A                 D
É que as vezes me perco no tempo pensando que posso te esquecer
    F#7                                Bm           Bm7
E a cada manhã é o futuro incerto que não a traz de volta
      G                   A             D      A
Ao bater nesta porta que nunca fechou pra você

Refrão:

 D    F#7                Bm      Bm7                         
Vem, nem que seja em sonho vem                            
       G                  A                               
Eu te quero de qualquer jeito                             
       D                                                  
Eu te quero como for                                      
        F#7                                Bm   Bm7       
Pois enquanto eu estiver sonhando estará comigo           
          G                   A             D        A    
Entre os sonhos o sonho mais lindo é viver esse amor      

(Intro)
 
  D               F#7               Bm        Bm7
Apago as luzes e deixo a porta da frente encostada
          G                  A                 D
É que as vezes me perco no tempo pensando que posso te esquecer
    F#7                                Bm            Bm7
E a cada manhã é o futuro incerto que não a traz de volta
      G                   A             D      A
Ao bater nesta porta que nunca fechou pra você

(Refrão 2x)

             G                   A             D        Bm
...entre os sonhos o sonho mais lindo é viver esse amor     

(Intro)

Clipes

Cifra Club Pro

Aproveite o Cifra Club com benefícios exclusivos e sem anúncios
Cifra Club Pro
Aproveite o Cifra Club com benefícios exclusivos e sem anúncios