Angry Days

Lagwagon

A#
234
X13331
B
234
X24442
C#
234
X46664
D#
234
X65343
E
123
022100
F#
234
244322
G#
234
431114
Tom: G
* ->Término do solo/riff
D.->Tocado uma oitava abaixo
E.->Tocado uma oitava acima


Intro: E. F# B G#   +   Riff1

#1t1#Riff1                   *
#1t2#G|--4-43-34p3h4-43-34p3h4-43-31h4p1-1-3/4-43--|  (4x)#/1t2##/1t1#



B...        A#       B|-2h4p2-|
 Angry youth MR. Elite
G# 
 Your older now 
            E    F#
Inside your head lives an old scene 
B         C#                  A|-6h7h9-|
 MR. Punk Sad and hating everyone 
.D#                              G#
 Your excuse is old The way you felt 
              F#         B
 has left you hating yourself 

D#                 G#
 Cause everyone is so confused 
C#
 You never worked for a cent 
F# 
 Self-destructive you pay your debt 
B                A#
 Cause you miss another time 
      G#
 when all your friends were so divine 
E                     F#
 Now all of them have gone or changed 
 
#2t1##2t2#                        A|-/6-7-|#/2t2##/2t1#
C#            F#            E.     F#  B  G#
 Do you still live in angry days? 

#3t1##3t2#G|-/8-9-|#/3t2##/3t1#
      E.            F#...         B
       Do you still live in angry days? 
 
Solo:

#4t1##4t2#E|-----------14-----------14-----------16~--------19-18-----19-18----19-18p16-16~--16\14-14~-|
B|--12h14/16--------14h16--------14h16---------16--------16-------16-------------------------|
G|---------------16-----------16-------------------------------------------------------------|#/4t2##/4t1#

#5t1##5t2#E|---------------------------[-----------14-----------14-----------16~-----|
B|---------------------------[--12h14/16--------14h16--------14h16---------|
G|-13/15-15-15-15/16-16-16---[---------------16-----------16---------------|#/5t2##/5t1#

#6t1##6t2#E|---19-18-----19-18-----19-18p16-16~--16-19-18~-]
B|16-------16---------16-------------------------]
G|-----------------------------------------------]#/6t2##/6t1#


#7t1##7t2#E|--------------------------------------------------------4-4--|
B|---------------------------4-4--------------------4-5-7------|
G|--4-3-4--------------3-4-6------4-3-4---------4-6------------|
D|---------4-3-4--4-6--------------------6-4-6-----------------|
A|-------------------------------------------------------------|
E|-------------------------------------------------------------|#/7t2##/7t1#
#8t1#                                *                                  <<-#
#8t2#E|------------------------------]--------------------------------|    |
B|--5-4-5-----------------------]---------------------------4/5--| 3x |
G|---------4-3-4------3-4-4-3-4-]-4-4--4-1h4-1--1-1--1-1-1-------|    | 
D|---------------4-6------------]--------------------------------|----#
A|------------------------------]--------------------------------|
E|------------------------------]--------------------------------|#/8t2##/8t1#


B                            D#
 But if you lost someone you love
                       E 
 If your mask is taken off 
                           F#
 Does life cut you down to size? 
                      B
 Does it open up your eyes? 
                                   D#
 Beacuse they all have found their way 
                              E.
 as you struggle through your maze 
                          F#
 You built those walls of hate 
         G#      A#     B
 Don´t tell me it´s too late 
  
D#                 G#
 Cause everyone is so confused
C# 
 You never worked for a cent
F#
 Self-destructive you pay your debt
B                A#
 Cause you miss another time
      G#
 when all your friends were so divine 
E                     F#
 Now all of them have gone or changed
                        
#9t1##9t2#                        A|-/6-7-|#/9t2##/9t1#
C#            F#            E.     F#  B  G#
 Do you still live in angry days? 

#10t1##10t2#G|-/8-9-|#/10t2##/10t1#
      E.            F#            B
       Do you still live in angry days? 

      E.            F#            B...     D#.  
       Do you still live in angry days? 

G#                                  E   
  Can you grow out your senseless heat
F#            E.         F#  B  G#  E  <-Final + Riff1
  Senseless heat 
                                         *
#11t1##11t2#                 G|--4-43-34p3h4-43-34p3h4-43-31h4p1-1-3/4-43--| (4x)#/11t2##/11t1#
Composição: Colaboração e revisão: Adriano Graciose