busca

Billy Club

Lagwagon

Tom: C
Hi everyone!
Everywhere I searched for this tab but I didnt find it anywhere. So I had to tab it by
myself. Im sorry if there are any mistakes, this is my first tab so....anyway, I didnt
wrote down the exact number of pattern, but you can hear it out if you listen to the
song.
Im sorry for my english, Im from Germany.
Now have fun with this tab.

e|-------------------------------------------------------------|
B|-------------------------------------------------------------|
G|-----------------------------------9999999999999999999-------|
D|------------------------666666-----9999999999999999999-------|
A|------------------------666666-----7777777777777777777-------|
E|------------------------444444-------------------------------|


e|-------------------------------------------------|
B|-------------------------------------------------|
G|999999999999999999-------------------------------|
D|999999999999999999-9999-4444--22222222222222222--|
A|777777777777777777-9999-4444--22222222222222222--|
E|-------------------7777-2222--00000000000000000--|
..........the feeble in---com----------------------|pletes *palm mute*

e|------------------------------------------------------|
B|------------------------------------------------------|
G|----------------------------------9999999999999999999-|
D|999999999999999999------6666666---9999999999999999999-|
A|999999999999999999------6666666---7777777777777777777-|
E|777777777777777777------4444444-----------------------|

e|----------------------------------------------------------------|
B|----------------------------------------------------------------|
G|9999999999-------11-11-11-11------------------------------------|
D|9999999999-9999--11-11-11-11-22222222222222222222222------------|
A|7777777777-9999--9--9---9-9--22222222222222222222222------------|
E|-----------7777--------------00000000000000000000000------------|

The verdict  just--ti----------fied---*palm mute*

e|---------------------------------------------------|
B|---------------------------------------------------|
G|---------------------------99999999999999999999999-|
D|--22222222-666666666666666-99999999999999999999999-|
A|--22222222-666666666666666-77777777777777777777777-|
E|--00000000-444444444444444-------------------------|

 Its self-de-fense,      its vigil-ance


e|----------------------------------------------------|
B|----------------------------------------------------|
G|9999999999--------------------888888888888888888888-|
D|9999999999-999999999999999999-888888888888888888888-|
A|7777777777-999999999999999999-666666666666666666666-|
E|-----------777777777777777777-----------------------|
Its nature's call,  above them  all

e|------------------------------------------------------------|
B|------------------------------------------------------------|
G|8888888888-9999999999999------------------------------------|
D|8888888888-9999999999999-44444444444444444444------7/99-----|
A|6666666666-7777777777777-44444444444444444444------7/99-----|
E|---------------- --------22222222222222222222------5/77-----|
The lesser  ones are-the   vital threat he needs them


e|----------------------------------------------------------|
B|----------------------------------------------------------|
G|--------------------------------9999999999999999999-------|
D|------9-9999999999---66666666---9999999999999999999-------|
A|------9-9999999999---66666666---7777777777777777777-------|
E|------7-7777777777---44444444-----------------------------|

e|-----------------------------------------------------|
B|-----------------------------------------------------|
G|999999999999999--------------------------------------|
D|999999999999999-9999-4444--22222222222222222---------|
A|777777777777777-9999-4444--22222222222222222---------|
E|----------------7777-2222--00000000000000000---------|

   Set down in    his--- to-----ry *palm mute*

e|-------------------------------   -----------------------|
B|------------------------------ --------------------------|
G|----------------------------------9999999999999999999----|
D|99999999999999999999999--6666666--9999999999999999999----|
A|99999999999999999999999--6666666--7777777777777777777----|
E|77777777777777777777777--4444444-------------------------|


e|---------------------------------------------------------------|
B|---------------------------------------------------------------|
G|-999999999---------------88888888------------------------------|
D|-999999999---9999--7777--88888888-666666666666666--------------|
A|-777777777---9999--7777--66666666-666666666666666--------------|
E|-------------7777--5555-----------444444444444444--------------|
It's here he   re----a-------------------------------------------|lized his role

e|---------------------------------------------------------|
B|---------------------------------------------------------|
G|-----------9999999999999999---------------------88888888-|
D|-666666666-9999999999999999-9999999999999999999-88888888-|
A|-666666666-7777777777777777-9999999999999999999-66666666-|
E|-444444444------------------7777777777777777777----------|
  & here it  comes,that old de-fense  he's conse- quence


e|--------------------------------------------------------------|
B|--------------------------------------------------------------|
G|-8888888888888888888-999999999999-----------------------------|
D|-8888888888888888888-999999999999--4444444444444444-----------|
A|-6666666666666666666-777777777777--4444444444444444-----------|
E|-----------------------------------2222222222222222-----------|

          But he has  chosen the iron-grip


e|--------|
B|--------|
G|--------|
D|4444444-|
A|4444444-|
E|2222222-|
 His Billy.....
Solo

*

e|-7--7-9-7-7-9-11--11-11-9-7-9-11-9-7-6-11-14-----|
B|--7--------7---------------------------------12--|
G|-------------------------------------------------|
D|-------------------------------------------------|
A|-------------------------------------------------|
E|-------------------------------------------------|
    Club

*

e|---------------------------------------------|
B|---------------------------------------------|
G|-------8888888-9999999999999999999999--------|
D|-999999-8888888-9999999999999999999999-9-4-2-|
A|-999999-6666666-7777777777777777777777-9-4-2-|
E|-777777--------------------------------7-2-0-|


1. Guitar

e |---7---7-9-7---7-9-11-9-7-6-7-6---7---6-7-6------------------------------------------------|
B|-7---7-------7----------------------9---9----------9-7--------------------------------------|
G|-----------------------------------------------------------9-8-9-8-6---9-8-6---9-8-6--------|
D|-----------------------------------------------------------------------9--------9--------9 -|
A|--------------------------------------------------------------------------------------------|
E|--------------------------------------------------------------------------------------------|


2. Guitar

e |------------------------------------------------------------------|
B|-------------------------------------------------------------------|
G|--4---4-6-4---4-6------------9999999999999999999999999999999999999-|
D|----4------- 4------66666666-9999999999999999999999999999999999999-|
A|--------------------66666666-7777777777777777777777777777777777777-|
E|--------------------44444444---------------------------------------|


*
e |---------------------------------|
B|----------------------------------|
G|-9-8-6----------------------------|
D|--------9-9~ ---------------------|
A|----------------------------------|
E|----------------------------------|

*

e |-------------------------|
B|--------------------------|
G|-9999999------------------|
D|-9999999-9-7-6-4----------|
A|-7777777-9-7-6-4----------|
E|-------------7-5-4-2------|


e |--------------------------------------------------------------------------|
B|---------------------------------------------------------------------------|
G|---------------------------------------------------------------------------|
D|-22-22222222222222222222-2-2222222222222222222222222-----------------------|
A|-22-22222222222222222222-2-2222222222222222222222222-----------------------|
E|-00-00000000000000000000-0-0000000000000000000000000-----------------------|
   ** ********************     *************************
      Desensitized. Hes Every-where He's anyone. He's every.....


e |-------------------------------------------------------|
B|--------------------------------------------------------|
G|------------------------------------9999999999999999999-|    } x2
D|999999999999999999999---6666666666--9999999999999999999-|
A|999999999999999999999---6666666666--7777777777777777777-|
E|777777777777777777777---4444444444----------------------|

e|-----------------------------------------------|
B|-----------------------------------------------|
G------------------------------------------------|
D|99999999999999999999----6------4---2---4-------|
A|99999999999999999999----6------4---2---4-------|
E|77777777777777777777----4------2---0---2-------|


e|------------------------------------------------------|
B|------------------------------------------------------|
G|--------------------------------------9---------------|
D|999999999999999999999-----6------4----9---4-------222-|
A|999999999999999999999-----6------4----7---4-------222-|
E|777777777777777777777-----4------2---------2------000-|

e |-----------------------------------------------------|
B|------------------------------------------------------|
G|------------------------------------------------------|
D|22222222222222222222222222222222-9~-------------------|
A|22222222222222222222222222222222-9~-------------------|
E|00000000000000000000000000000000-7~-------------------|
   ********************************

Clipes